Song name
# A B C D E F G H I J K L M N O P Q R S T U V W X Y Z

Motley Crue - Same Ol Situation Sos tab

-------------------------------------------------------------------------------
			     Same Ol Situation - Motley Crue
-------------------------------------------------------------------------------
Tabbed by: ironmanben
Email: superclam500@yahoo.com

Tuning: Drop D (Full Step Down)

before I begin, there are two parts to this song:
Guitar 1-What Mick Mars plays in this song, lead guitar
Guitar 2-What Vince Neil plays in this song, second guitar

riff 1
x4 (Both Parts)
Guitar 1
e|-------------------------------|
B|-5-5-5-4-4-4-4-4-3-3-3-2~-2-2--|
G|-4-4-4-3-3-3-3-3-2-2-2-2~-2-2--|
D|-2-2-2-1-1-1-1-1-0-0-0-2~------|
A|-------------------------------|
E|-------------------------------|
Guitar 2
e|-------------------------------|
B|-------------------------------|
G|-2-2~--------------------------|
D|-2-2~--------------------------|
A|-0-0~--------------------------|
E|-------------------------------|

verse 
x2(Both Parts)
Guitar 1
e|----------------------|
B|----------------------|
G|-2--2-2--2------------|
D|-2--2-2--2-2--2-2-----|
A|-0--0-0--0-2--2-2-----|
E|-----------0--0-0-----|
Guitar 2 (Is Silent)
e|----------------------|
B|----------------------|
G|----------------------|
D|----------------------|
A|----------------------|
E|----------------------|

x2 (both parts)
Guitar 1
e|------------------------------------------------|
B|------------------------------------------------|
G|------------------------------------------------|
D|-2--2-4-22-4--2--2-4-22-4-----------------------|
A|-0--0-0-00-0--0--0-0-00-0-2--2-4-5--2--2-4-5----|
E|--------------------------0--0-0-0--0--0-0-0----|
Guitar 2 (Is Silent)
e|------------------------------------------------|
B|------------------------------------------------|
G|------------------------------------------------|
D|------------------------------------------------|
A|------------------------------------------------|
E|------------------------------------------------|

pre-chorus 
x1 (both parts)
Guitar 1
e|---------------------------------------------|
B|---------------------------------------------|
G|--4------4----4------4-----------------------|
D|-----3-4--3-4----3-4-------------------------|
A|--------------------------2----2----2--------|
E|---------------------------1-2--1-2----------|
Now I'm not sure this part is exactly right, so email me any corrections.
Guitar 2
e|---------------------------------------------|
B|---------------------------------------------|
G|---------------------------------------------|
D|-7--------77-7----7-6-5-4----------4--4-4-4--|
A|-5--------55-5----5-4-3-2----------2--2-2-2--|
E|---------------------------------------------|

chorus x2
 
x2 (Both Parts)
Guitar 1
e|---------------|
B|---------------|
G|------5-4-2----|
D|------5-4-2----|
A|---------------|
E|---------------|
Guitar 2
e|---------------|
B|---------------|
G|---------------|
D|-2--2-2--------|
A|-0--0-0--------|
E|---------------|

x2 (Both Parts)
Guitar 1
e|-------------------|
B|---5-x5------------|
G|---4-x4------------|
D|-------------------|
A|-------------------|
E|-------------------|
Guitar 2
e|-------------------|
B|-------------------|
G|-------------------|
D|-------------------|
A|-2--2-4-5----------|
E|-0--0-0-0----------|

pre-chorus 
x1 (both parts)
Guitar 1                                   
e|-------------------------------------------18\|
B|--------------------------10-8----8-----------|
G|--10-8--10-8-------------------11---11-9------|
D|------11----11-9------------------------------|
A|--------------------------2----2----2---------|
E|---------------------------1-2--1-2-----------|
Again, I'm not sure this part is exactly right, so email me any corrections.
Guitar 2
e|---------------------------------------------|
B|---------------------------------------------|
G|---------------------------------------------|
D|-7--------77-7----7-6-5-4----------4--4-4-4--|
A|-5--------55-5----5-4-3-2----------2--2-2-2--|
E|---------------------------------------------|

riff 1
x2 (Both Parts)
Guitar 1
e|-------------------------------|
B|-5-5-5-4-4-4-4-4-3-3-3-2~-2-2--|
G|-4-4-4-3-3-3-3-3-2-2-2-2~-2-2--|
D|-2-2-2-1-1-1-1-1-0-0-0-2~------|
A|-------------------------------|
E|-------------------------------|
Guitar 2
e|-------------------------------|
B|-------------------------------|
G|-2-2~--------------------------|
D|-2-2~--------------------------|
A|-0-0~--------------------------|
E|-------------------------------|

verse 
x1(Both Parts)
Guitar 1
e|----------------------|
B|----------------------|
G|-2--2-2--2------------|
D|-2--2-2--2-2--2-2-----|
A|-0--0-0--0-2--2-2-----|
E|-----------0--0-0-----|
Guitar 2 (Is Silent)
e|----------------------|
B|----------------------|
G|----------------------|
D|----------------------|
A|----------------------|
E|----------------------|

x1 (both parts)
Guitar 1
e|------------------------------------------------|
B|------------------------------------------------|
G|------------------------------------------------|
D|-2--2-4-22-4--2--2-4-22-4-----------------------|
A|-0--0-0-00-0--0--0-0-00-0-2--2-4-5--2--2-4-5----|
E|--------------------------0--0-0-0--0--0-0-0----|
Guitar 2 (Is NOT Silent)
e|----------------------|
B|----------------------|
G|-2--2-2--2------------|
D|-2--2-2--2-2--2-2-----|
A|-0--0-0--0-2--2-2-----|
E|-----------0--0-0-----|

pre-chorus 
x1 (both parts)
Guitar 1
e|---------------------------------------------|
B|---------------------------------------------|
G|--4------4----4------4-----------------------|
D|-----3-4--3-4----3-4-------------------------|
A|--------------------------2----2----2--------|
E|---------------------------1-2--1-2----------|
Now I'm not sure this part is exactly right, so email me any corrections.
Guitar 2
e|---------------------------------------------|
B|---------------------------------------------|
G|---------------------------------------------|
D|-7--------77-7----7-6-5-4----------4--4-4-4--|
A|-5--------55-5----5-4-3-2----------2--2-2-2--|
E|---------------------------------------------|

chorus x2
 
x2 (Both Parts)
Guitar 1
e|---------------|
B|---------------|
G|------5-4-2----|
D|------5-4-2----|
A|---------------|
E|---------------|
Guitar 2
e|---------------|
B|---------------|
G|---------------|
D|-2--2-2--------|
A|-0--0-0--------|
E|---------------|

x2 (Both Parts)
Guitar 1
e|-------------------|
B|---5-x5------------|
G|---4-x4------------|
D|-------------------|
A|-------------------|
E|-------------------|
Guitar 2
e|-------------------|
B|-------------------|
G|-------------------|
D|-------------------|
A|-2--2-4-5----------|
E|-0--0-0-0----------|

pre-chorus 
x1 (both parts)
Guitar 1                                   
e|-------------------------------------------18\|
B|--------------------------10-8----8-----------|
G|--10-8--10-8-------------------11---11-9------|
D|------11----11-9------------------------------|
A|--------------------------2----2----2---------|
E|---------------------------1-2--1-2-----------|
Again, I'm not sure this part is exactly right, so email me any corrections.
Guitar 2
e|---------------------------------------------|
B|---------------------------------------------|
G|---------------------------------------------|
D|-7--------77-7----7-6-5-4----------4--4-4-4--|
A|-5--------55-5----5-4-3-2----------2--2-2-2--|
E|---------------------------------------------|

riff 1
x4 (Both Parts)
Guitar 1
e|-------------------------------|
B|-5-5-5-4-4-4-4-4-3-3-3-2~-2-2--|
G|-4-4-4-3-3-3-3-3-2-2-2-2~-2-2--|
D|-2-2-2-1-1-1-1-1-0-0-0-2~------|
A|-------------------------------|
E|-------------------------------|
Guitar 2
e|-------------------------------|
B|-------------------------------|
G|-2-2~--------------------------|
D|-2-2~--------------------------|
A|-0-0~--------------------------|
E|-------------------------------|

~~GUITAR SOLO HERE~~

verse 
x1(Both Parts)
Guitar 1
e|----------------------|
B|----------------------|
G|-2--2-2--2------------|
D|-2--2-2--2-2--2-2-----|
A|-0--0-0--0-2--2-2-----|
E|-----------0--0-0-----|
Guitar 2 (Is Silent)
e|----------------------|
B|----------------------|
G|----------------------|
D|----------------------|
A|----------------------|
E|----------------------|

Guitar 1
e|---------------------------------------------|
B|---------------------------------------------|
G|---------------------------------------------|
D|-7----------------7-6-5-4----------4---------|
A|-5----------------5-4-3-2----------2---------|
E|---------------------------------------------|
Guitar 2
e|----------------------------------------------|
B|----------------------------------------------|
G|----------------------------------------------|
D|----------------------------------------------|
A|-------------------------------------\\\\\\\\\|
E|-------------------------------------\\\\\\\\\|

chorus x4
 
x2 (Both Parts)
Guitar 1
e|---------------|
B|---------------|
G|------5-4-2----|
D|------5-4-2----|
A|---------------|
E|---------------|
Guitar 2
e|---------------|
B|---------------|
G|---------------|
D|-2--2-2--------|
A|-0--0-0--------|
E|---------------|

The next part is done 4+ times at the end of the 4th chorus.
x2 (Both Parts)
Guitar 1
e|-------------------|
B|---5-x5------------|
G|---4-x4------------|
D|-------------------|
A|-------------------|
E|-------------------|
Guitar 2
e|-------------------|
B|-------------------|
G|-------------------|
D|-------------------|
A|-2--2-4-5----------|
E|-0--0-0-0----------|


| /  slide up
| \  slide down
| h  hammer-on
| p  pull-off
| ~  vibrato
| +  harmonic
| x  Mute note
===============================================================================
Tap to rate this tab
# A B C D E F G H I J K L M N O P Q R S T U V W X Y Z