Song name
# A B C D E F G H I J K L M N O P Q R S T U V W X Y Z

Motley Crue - Shout At The Devil tab

Here is the full song the way i tabbed it. Hope you will like it and find it helpful. :)

Song: Shout at the Devil
Artist: Motley Crue
Tabbed by: Brandon Cupps
Tuning: D Tuning (DGCFAD)

D------------------------------------I
A------------------------------------I
F-----5~/------7~/------5~/------7~/-I  
C-----5~/------7~/------5~/------7~/-I
G-0-0------0-0------0-0------0-0-----I
D------------------------------------I



D--------------------------------------I
A--------------------------------------I      Chorus
F-------5-------7-------5-------7-5ph~-I     play this 2x
C-------5-------7-------5----5---------I
G-0-0-0---0-0-0---0-0-0---5h7-7--------I
D--------------------------------------I

(Solo 1)
D--8b---7b---5b------8b--10b---5b------I
A-11b--10b---8b-----11b--13b---8b------I
F--------------------------------------I        Solo (Mick Mars)
C--------------------------------------I
G--------------------------------------I
D--------------------------------------I

Play 4 Times           (4th time ending)
D--------------------I-----------------I
A--------------------I---------3-------I
F-7-5-2-2-x-5~-7-5-2-I---5-------------I       Verse
C-7-5-2-2-x-5~-7-5-2-I---5-------------I   
G-5-3-0-0-x-3~-5-3-0-I-3~--3-2~-2------I
D--------------------I-----------------I


D---------------------------------------I
A---------------------------------------I
F-------5--------7--------5------7-5ph~-I        Chorus
C-------5--------7--------5----5--------I     play this 2x
G-0-0-0----0-0-0----0-0-0---5h7-7-------I
D---------------------------------------I

Play 4 Times           (4th time ending)
D--------------------I------------------I
A--------------------I---------3--------I
F-7-5-2-2-x-5~-7-5-2-I---5--------------I
C-7-5-2-2-x-5~-7-5-2-I---5--------------I          Verse
G-5-3-0-0-x-3~-5-3-0-I-3~--3-2~-2-------I
D--------------------I------------------I


D---------------------------------------I
A---------------------------------------I
F-------5--------7--------5------7-5ph~-I        Chorus
C-------5--------7--------5----5--------I      play this 2x
G-0-0-0----0-0-0----0-0-0---5h7-7-------I
D---------------------------------------I


Solo 2     (Mick Mars)
D-5b--4b--2b--------------------------------------------------------------I
A-8b--7b--5b~/------------------------------------------------------------I
F--------------12h14p12h14p12h14p12--14h17p14h17--14b-17b--12h14p12h14p12-I
C-------------------------------------------------------------------------I
G-------------------------------------------------------------------------I
D-------------------------------------------------------------------------I

Solo 2 Continued...
D-5b--7b--2b--I
A-8b-10b--5b--I
F-------------I
C-------------I
G-------------I
D-------------I


Verse

Chorus 2x

pause

then chorus 2x again


then

D------------------------------------------------I
A------------------------------------------------I
F------4/5--------6/7--------4/5----------7------I    Bridge
C------4/5--------6/7--------4/5------7-----5----I   Play This 2x
G-0-0-0----0-0-0-0----0-0-0-0-----5h7---5---3----I
D------------------------------------------------I


Solo 3 (Mick Mars)
D--8b---7b---5b------8b--10b---5b------8b---7b---5b------8b--10b---5b--I
A-11b--10b---8b-----11b--13b---8b-----11b--10b---8b-----11b--13b---8b--I
F----------------------------------------------------------------------I
C----------------------------------------------------------------------I
G----------------------------------------------------------------------I
D----------------------------------------------------------------------I


D----------------------I
A----------------------I
F-------7-5ph~--2~-----I
C----5----------2~-----I
G-5h7-7---------0~-----I
D----------------------I

Hope you liked it and found it useful :)

email me for any other Motley Crue tabs @ Rictawheels0@hotmail.com

Have a good day!
Crue forever!



Tap to rate this tab
# A B C D E F G H I J K L M N O P Q R S T U V W X Y Z