Song name
# A B C D E F G H I J K L M N O P Q R S T U V W X Y Z

Motley Crue - Shout At The Devil tab

Intro each part 2x   b=bend /=slide h=hammer on
E----------------------------------------------------------------------------|
B----------------------------------------------------------------------------|
G----------------------------------------------------------------------------|
D---5-5-5---8/---3-3-3---10/--5-5-5--8--5-5-5--10--5-5-5--8----------5-3-----|
A---5-5-5---8/---3-3-3---10/--5-5-5--8--5-5-5--10--5-5-5--8------3-5---------|
E---3-3-3---6/---5-5-5---8/---3-3-3--6--3-3-3--8---3-3-3--6--3-6-------------|

E----------------------------------------------------------------------------|
B-11--10--8-----11--13--8----------------------------------------------------|
G-13b-12b-10b---13b-15b-10b--------------------------------------------------|
D----------------------------------------------------------------------------|
A----------------------------------------------------------------------------|
E----------------------------------------------------------------------------|

Verse 3X
E--------------------------------------------------------------------|
B--------------------------------------------------------------------|
G--------------------------------------------------------------------|
D-10--8--5-5-5--8--10--8--5------------------------------------------|
A-10--8--5-5-5--8--10--8--5------------------------------------------|
E-8---6--3-3-3--6--8---6--3------------------------------------------|

Last time on verse 1X
E--------------------------------------------------------------------|
B--------------------------------------------------------------------|
G--------------------------------------------------------------------|
D--10--8--5-5-5--8--8------------------------------------------------|
A--10--8--5-5-5--8--8---8----8---------------------------------------|
E--8---6--3-3-3--6--6--6-6--5-5--------------------------------------|

Chorus 2X
E--------------------------------------------------------------------|
B--------------------------------------------------------------------|
G--------------------------------------------------------------------|
D--5-5-5--8--5-5-5--10--5-5-5--8---------5-3-------------------------|
A--5-5-5--8--5-5-5--10--5-5-5--8------3-5----------------------------|
E--3-3-3--6--3-3-3--8---3-3-3--6--3-6--------------------------------|

Solo on hammer on take strumming hand and pull up on B string
E--------------------------------------------------------------------|
B-6---5---3--10h-13h-10h-13h-10h-13h-10h-13h-10h-13h-10h-13h-10h-13h-|
G-8b--7b--5b---------------------------------------------------------|
D--------------------------------------------------------------------|
A--------------------------------------------------------------------|
E--------------------------------------------------------------------|

E--------------------------------------------------------------------|
B--6---8----3--------------------------------------------------------|
G--8b--10b--5b-------------------------------------------------------|
D--------------------------------------------------------------------|
A--------------------------------------------------------------------|
E--------------------------------------------------------------------|

I think its all there just put it in order any questions e mail me @ mopar_man73@hotmail.com
Tap to rate this tab
# A B C D E F G H I J K L M N O P Q R S T U V W X Y Z