Song name
# A B C D E F G H I J K L M N O P Q R S T U V W X Y Z

Motley Crue - Girls Girls Girls tab

            i figured ultimate-guitar needed a good tab
            of girls girls girls so here it is,make sure
             your a full step down thanks alot rate plz.


~ - let ring
b - bend note
/ - slide
x - times played
w - whammy bar


Intro

D|--3~----3~----3~----3b------|
A|--3~----3~----3~----3b------|
F|--0~----0~----0~----0~------|
C|--0~----0~----0~----0~------|
G|----------------------------|
D|--3~----3~----3~----3b------|

D|-------------------------------------|
A|-------------------------------------|
F|-----------------------9--------9----|
C|-----------------------9--------9----|
G|--5/7\5-----5\4--------7--------7----|
D|--3/5\3--0--3\2--0--0-----0--0-------|

D|-----------------------------------------|
A|-----------------------------------------|
F|-----------------------2--------2--------|
C|--------------------2--2--------2--------|
G|--5/7\5-----5\4-----2-----3--4-----------|
D|--3/5\3--0--3\2--0-----------------3--4--|

D|-------------------------------------|
A|-------------------------------------|
F|-----------------------9--------9----|
C|-----------------------9--------9----|
G|--5/7\5-----5\4--------7--------7----|
D|--3/5\3--0--3\2--0--0-----0--0-------|

D|--------------------------------------------|
A|--------------------------------------------|
F|-----------------------2--------2-----------|
C|--------------------2--2--------2-----------|
G|--5/7\5-----5\4-----2-----3--4--------------|
D|--3/5\3--0--3\2--0-----------------0--3--4--|

D|------------------------------------------|
A|------------------------------------------|
F|------7-7~--------9-9~--------7-7~--------|
C|--2~--7-7~---2~---9-9~---2~---7-7~---2~---|
G|--0~---------0~----------0~----------0~---|
D|----------3-----------3-----------3-------|

D|------------------------|
A|------------------------|
F|--7\6--7\6--7\6--7\6----|
C|------------------------|
G|--5\4--5\4--5\4--5\4----|
D|------------------------|

D|-------------------------------------|
A|-------------------------------------|
F|-----------------------9--------9----|
C|-----------------------9--------9----|
G|--5/7\5-----5\4--------7--------7----|
D|--3/5\3--0--3\2--0--0-----0--0-------|

D|-----------------------------------------|
A|-----------------------------------------|
F|-----------------------2--------2--------|
C|--------------------2--2--------2--------|
G|--5/7\5-----5\4-----2-----3--4-----------|
D|--3/5\3--0--3\2--0-----------------3--4--|

D|------------------------------------|
A|------------------------------------|
F|----------------------2-------2-----|
C|--5/7\5-----5\4--2-2--2-------2-----|
G|--3/5\3--0--3\2--0-0-----0-0--------|
D|------------------------------------|

D|------------------------------------|
A|------------------------------------|
F|----------------------2--2--2-------|
C|--5/7\5-----5\4--2-2--2--2--2-------|
G|--3/5\3--0--3\2--0-0-----------0----|
D|------------------------------------|

D|-------------------------------------|
A|-------------------------------------|
F|-----------------------9--------9----|
C|-----------------------9--------9----|
G|--5/7\5-----5\4--------7--------7----|
D|--3/5\3--0--3\2--0--0-----0--0-------|

D|--------------------------------------------|
A|--------------------------------------------|
F|-----------------------2--------2-----------|
C|--------------------2--2--------2-----------|
G|--5/7\5-----5\4-----2-----3--4--------------|
D|--3/5\3--0--3\2--0-----------------0--3--4--|

D|------------------------------------------|
A|------------------------------------------|
F|------7-7~--------9-9~--------7-7~--------|
C|--2~--7-7~---2~---9-9~---2~---7-7~---2~---|
G|--0~---------0~----------0~----------0~---|
D|----------3-----------3-----------3-------|

D|------------------------|
A|------------------------|
F|--7\6--7\6--7\6--7\6----|
C|------------------------|
G|--5\4--5\4--5\4--5\4----|
D|------------------------|

D|-------------------------------------|
A|-------------------------------------|
F|-----------------------9--------9----|
C|-----------------------9--------9----|
G|--5/7\5-----5\4--------7--------7----|
D|--3/5\3--0--3\2--0--0-----0--0-------|

D|------------------------------------------|
A|------------------------------------------|
F|-----------------------2--------2---------|
C|--------------------2--2--------2---------|
G|--5/7\5-----5\4-----2-----3--4------------|
D|--3/5\3--0--3\2--0------------------3--4--|

D|------------------------------------|
A|------------------------------------|
F|----------------------2-------2-----|
C|--5/7\5-----5\4--2-2--2-------2-----|
G|--3/5\3--0--3\2--0-0-----0-0--------|
D|------------------------------------|

D|------------------------------------|
A|------------------------------------|
F|----------------------2--2--2-------|
C|--5/7\5-----5\4--2-2--2--2--2-------|
G|--3/5\3--0--3\2--0-0-----------0----|
D|------------------------------------|

D|-------------------------------------|
A|-------------------------------------|
F|-----------------------9--------9----|
C|-----------------------9--------9----|
G|--5/7\5-----5\4--------7--------7----|
D|--3/5\3--0--3\2--0--0-----0--0-------|

D|--------------------------------------------|
A|--------------------------------------------|
F|-----------------------2--------2-----------|
C|--------------------2--2--------2-----------|
G|--5/7\5-----5\4-----2-----3--4--------------|
D|--3/5\3--0--3\2--0-----------------3--4--0--|

D|-------------------------------------|
A|-------------------------------------|
F|-------------------------------------|
C|-------------------------------------|
G|--2--4---2--4--5---5--4---2--4--5----|
D|--0--0---0--0--0---0--0---0--0--0----|

D|-------------------------------------|
A|-------------------------------------|
F|-------------------------------------|
C|-------------------------------------|
G|--2--4---2--4--5---5--4---2--4-------|
D|--0--0---0--0--0---0--0---0--0-------|

D|-------------------------------------------------|
A|-------------------------------------------------|
F|------------------9--8-----9--8-----11~----------|
C|--9--11~--9--11~--------9--------9-------2-2-2---|
G|-----------------------------------------0-0-0---|
D|-------------------------------------------------|

D|-------------------------------------|
A|-------------------------------------|
F|-------------------------------------|
C|-------------------------------------|
G|--2--4---2--4--5---5--4---2--4--5----|
D|--0--0---0--0--0---0--0---0--0--0----|

D|-------------------------------------|
A|-------------------------------------|
F|-------------------------------------|
C|-------------------------------------|
G|--2--4---2--4--5---5--4---2--4-------|
D|--0--0---0--0--0---0--0---0--0-------|

D|-------------------------------------------------|
A|-------------------------------------------------|
F|------------------9--8-----9--8-----11~----------|
C|--9--11~--9--11~--------9--------9-------2-2-2---|
G|-----------------------------------------0-0-0---|
D|-------------------------------------------------|

D|-------------------------------------------|
A|-------------------------------------------|
F|-------------------------------------------|
C|--2--2---2--2--2---2--2---2--2--2--2--2----|
G|--2--2---2--2--2---2--2---2--2--2--2--2----|
D|--0--0---0--0--0---0--0---0--0--0--0--0----|


D|--3-3--3~---3~----3w----3w------|
A|--3-3--3~---3~----3w----3w------|
F|--0-0--0~---0~----0w----0w------|
C|--0-0--0~---0~----0w----0w------|
G|--------------------------------|
D|--3-3--3~---3~----3w----3w------|


D|-------------------------------------|
A|-------------------------------------|
F|-----------------------9--------9----|
C|-----------------------9--------9----|
G|--5/7\5-----5\4--------7--------7----|
D|--3/5\3--0--3\2--0--0-----0--0-------|

D|-----------------------------------------|
A|-----------------------------------------|
F|-----------------------2--------2--------|
C|--------------------2--2--------2--------|
G|--5/7\5-----5\4-----2-----3--4-----------|
D|--3/5\3--0--3\2--0-----------------3--4--|

D|-------------------------------------|
A|-------------------------------------|
F|-----------------------9--------9----|
C|-----------------------9--------9----|
G|--5/7\5-----5\4--------7--------7----|
D|--3/5\3--0--3\2--0--0-----0--0-------|

D|--------------------------------------------|
A|--------------------------------------------|
F|-----------------------2--------2-----------|
C|--------------------2--2--------2-----------|
G|--5/7\5-----5\4-----2-----3--4--------------|
D|--3/5\3--0--3\2--0-----------------0--3--4--|

D|------------------------------------------|
A|------------------------------------------|
F|------7-7~--------9-9~--------7-7~--------|
C|--2~--7-7~---2~---9-9~---2~---7-7~---2~---|
G|--0~---------0~----------0~----------0~---|
D|----------3-----------3-----------3-------|

D|------------------------|
A|------------------------|
F|--7\6--7\6--7\6--7\6----|
C|------------------------|
G|--5\4--5\4--5\4--5\4----|
D|------------------------|

D|-------------------------------------|
A|-------------------------------------|
F|-----------------------9--------9----|
C|-----------------------9--------9----|
G|--5/7\5-----5\4--------7--------7----|
D|--3/5\3--0--3\2--0--0-----0--0-------|

D|-----------------------------------------|
A|-----------------------------------------|
F|-----------------------2--------2--------|
C|--------------------2--2--------2--------|
G|--5/7\5-----5\4-----2-----3--4-----------|
D|--3/5\3--0--3\2--0-----------------3--4--|

D|------------------------------------|
A|------------------------------------|
F|----------------------2-------2-----|
C|--5/7\5-----5\4--2-2--2-------2-----|
G|--3/5\3--0--3\2--0-0-----0-0--------|
D|------------------------------------|

D|------------------------------------|
A|------------------------------------|
F|----------------------2--2--2-------|
C|--5/7\5-----5\4--2-2--2--2--2-------|
G|--3/5\3--0--3\2--0-0-----------0----|
D|------------------------------------|

D|---------------------------------------|---------|
A|---------------------------------------|---------|
F|---------------------------------------|---------|
C|---------------------------------------|---- x 4-|
G|--5/7\5-----5\4--2-2--4--2--2--4--2----|---------|
D|--3/5\3--0--3\2--0-0--0--0--0--0--0----|---------|

This is the end solo
rythem is under this.

D|------------------------------12---------|
A|--15~---15b---15~---15~---15b----13------|
F|--------14b---------14~---14b-------14---|
C|-----------------------------------------|
G|-----------------------------------------|
D|-----------------------------------------|

D|----------------------------5--------------------|
A|--8~---8~--8b------8~---8b----8-5-8-5-5-5--15b---|
F|-------7~--7b--5--------7b-----------------------|
C|-------------------------------------------------|
G|-------------------------------------------------|
D|-------------------------------------------------|

D|----------------------------------------------------------|
A|--15b--15b--15--15b--15b--15--15b--15b--15b--15--15b--15--|
F|--14b--14b------14b--14b------14b--14b--14b------14b------|
C|----------------------------------------------------------|
G|----------------------------------------------------------|
D|----------------------------------------------------------|

D|------------------------------------------------------------|
A|------15b--12-15-12-15-12-15-12-15-12-15-12-15-12-15-12-15--|
F|--12--------------------------------------------------------|
C|------------------------------------------------------------|
G|------------------------------------------------------------|
D|------------------------------------------------------------|

D|---------------12-14--15-12-14-15-12-14-15-12-14-15-12-14---|
A|--12-15-12-15-----------------------------------------------|
F|------------------------------------------------------------|
C|------------------------------------------------------------|
G|------------------------------------------------------------|
D|------------------------------------------------------------|

D|--15-12-14-15-12-14-13-12-14-13-12-12---24b-24b-24b---|
A|------------------------------------------------------|
F|------------------------------------------------------|
C|------------------------------------------------------|
G|------------------------------------------------------|
D|------------------------------------------------------|

D|--24b-24b-24b--24b-22b-24b-22b-24b--|
A|------------------------------------|
F|------------------------------------|
C|------------------------------------|
G|------------------------------------|
D|------------------------------------|

D|------------------------------------------------|
A|------------------------------------------------|
F|--12-12-12-12\11-9---12-12-12-12--12--11--9-----|
C|--12-12-12-12\11-9---12-12-12-12--12--11--9-----|
G|------------------------------------------------|
D|------------------------------------------------|


D|-------------------------------------------|
A|-------------------------------------------|
F|--12-12-12-12-12\11--12-12-12-12-12\11-----|
C|--12-12-12-12-12\11--12-12-12-12-12\11-----|
G|-------------------------------------------|
D|-------------------------------------------|


D|-------------------------------------------|
A|-------------------------------------------|
F|--12-12-12-12-12\11--9--12-12-12-12\11--9--|
C|--12-12-12-12-12\11--9--12-12-12-12\11--9--|
G|-------------------------------------------|
D|-------------------------------------------|

Outro
D|-------------------------------------------|
A|-------------------------------------------|
F|--12-12-12\11--9--12/14\12-----------------|
C|--12-12-12\11--9--12/14\12-----------------|
G|-------------------------------5\4--2-2----|
D|----------------------------0--3\2--0-0----|

rythem
D|-------------------------------------|-----|
A|-------------------------------------|-----|
F|-------------------------------------|-----|
C|--5/7\5---5\4--2-2-2--2-2-2--2-2-----|-----| x2
G|--3/5\3-0-3\2--0-0-0--0-0-0--0-0-----|-----|
D|-------------------------------------|-----|

D|--------------------------------|-----|
A|--------------------------------|-----|
F|--------------------------------|-----|
C|--------------------------------|-----| x4
G|--5/7\5---5\4---2--2--4--2------|-----|
D|--3/5\3-0-3\2---0--0--0--0------|-----|

D|-------------------------------------------|-----|
A|-------------------------------------------|-----|
F|-------------------------------------------|-----|
C|-------------------------------------------|-----| x2
G|--2-2--2--2-2--2--2--2--2-2-2--2--2--2-----|-----|
D|--0-0--0--0-0--0--0--0--0-0-0--0--0--0-----|-----|

outro
D|------------------------------|
A|------------------------------|
F|------------------------------|
C|------------------------------|
G|--4--2--5/7\5-----5\4--2--2~--|
D|--0--0--3/5\3--0--3\2--0--0~--|

                  thanks for checking out my tab
                   hope you enjoyed it please
                       rate and comment.
                             :)
Tap to rate this tab
 
# A B C D E F G H I J K L M N O P Q R S T U V W X Y Z