Motley Crue - Starry Eyes tab

e|-------------------------------------------------------------------|
B|-------------------------------------------------------------------|
G|-------------------------------------------------------------------|
D|-5--------9--9-----7-----5-----44--------44---2----4----4----------|
A|-7-------10-10-----9-----7-----55--------55---3----5----5--Repeat--|
E|---000----------0-----0-----0-------000-----0---0----0-------------|
Verse
e|----------------------------------------------------------------------------|
B|----------------------------------------------------------------------------|
G|----------------------------------------------------------------------------|
D|-5----5---5--5---44-----4-4---4----22-----2---2---2---4-4----4---4---4---4--|
A|-7----7---7--7---55-----5-5---5----33-----3---3---3---5-5----5---5---5---5--|
E|-----0--0--0---0------0--0--0---0-------0---0---0---0-------0--0---0---0----|

e|------------------------------------------------------------------------|
B|------------------------------------------------------------------------|
G|------------------------------------------------------------------------|
D|5---5---5---5----44-----4---4---4---22----2---2---2---44--/-------------|
A|7---7---7---7----55-----5---5---5---33----3---3---3---55-/----55555555--|
E|---0--0---0---0-------0---0---0---0-----0---0---0---0-------------------|
Chorus
e|--------------------------------------------------------------------------------------|
B|--------------------------------------------------------------------------------------|
G|--------------------------------------------------------------------------------------|
D|-9---5--7----5--7---------------------------------------------------------------------|
A|-7---3--5----3--5-----3----3--2-~-----------------------------------------------------|
E|------------------------0-------------------------------------------------------------|

e|--------------------------------------------------------------------------------------|
B|--------------------------------------------------------------------------------------|
G|--------------------------------------------------------------------------------------|
D|--------2-----------------------------------------------------------------------------|
A|-0--323---323--8x---------------------------------------------------------------------|
E|----------------------0--323---etc----------------------------------------------------|
Tap to rate this tab
 
# A B C D E F G H I J K L M N O P Q R S T U V W X Y Z