Song name
# A B C D E F G H I J K L M N O P Q R S T U V W X Y Z

Motley Crue - Bitter Pill tab

Song:Bitter Pill
Artist:Motley Crue
Album:Red, Withe & Crue
Tab by Patrick

e--------------------------------------------------------------------|
B--------------------------------------------------------------------|
G--------------------------------------------------------------------|
D------------------17-15-13-12-8-------------------17-15-13-17-15-13-|
A--8-8-10/12-10-13---------------6/8-8-10/12-10-13-------------------|
E--------------------------------------------------------------------|

e-----------------------------------------------------------------|
B-----------------------------------------------------------------|
G-------------------------7---------------------------------------|
D----------------17-15-13---8------------------17-15-13--17-15-13-|
A-4/8-8-10/12-13--------------6-6/8-8-10/12-13--------------------|
E-----------------------------------------------------------------|

e-----------------|
B-----------------|
G-----------------|
D-15/19-17-15-----|
A-------------4/8-|
E-----------------|
Tap to rate this tab
 
# A B C D E F G H I J K L M N O P Q R S T U V W X Y Z