Song name
# A B C D E F G H I J K L M N O P Q R S T U V W X Y Z

Motley Crue - Sick Love Song tab

Sick Love Song
by Motley Crue

Play in Drop D Tuning

This is my first tab... Please rate and comment or tell me any corrections you may have. 
Thanks a lot and I hope you enjoy!

Riff A
--------------------------------|
--------------------------------|
--------------------------------|  --play 3x--
--------------------------------|
-----------9-----8------8--7--5-|
-----0--0--7--7--6---6--6--5--3-|

Riff B        Pm---|
--------------------------------------------|
--------------------------------------------|
--------------------------------------------|
--------------------------------------------|
--------------------------------------------|
--------0---5b(5)---3--3---5b(5)---3~~~~~~~-|

Play Riff A (do the same thing as before and play it 3x)Then play Riff C.
Riff C
---------------------------------------|----------------------------------|
--------14b(14)---12----14b(14)---12\--|----------------------------------|
---------14b(14)---12----14b(14)---12\-|--While bending 14 only bend 1/2--|
---------------------------------------|----------------------------------|
---------------------------------------|----------------------------------|
-0-------------------------------------|----------------------------------|

Verse 1 (0:30)
Pm--------------------------------------------------------|
-------------------------|--------------------------------|
-------------------------|--------------------------------|
-------------------------|-Play 3x------------------------|
-------------------------|--------------------------------|
-------------------------|--------------------------------|
-0--7----6--6---5--3b----|-----Only bend 1/4 up on the 3--|

Riff B        Pm---|
---------------------------------------|
---------------------------------------|
---------------------------------------|
---------------------------------------|
---------------------------------------|
---0---5b(5)---3--3---5b(5)---3~~~~~~~-|

Verse 1
Pm-------------------------------------------------------------|
-------------------------|-------------------------------------|
-------------------------|-------------------------------------|
-------------------------|-Play 3x-----------------------------|
-------------------------|-------------------------------------|
-------------------------|-------------------------------------|
-0--7----6--6---5--3b----|-----Only bend 1/4 up on the 3-------|

Riff B        Pm---|
---------------------------------------|----------------------|
---------------------------------------|----------------------|
---------------------------------------|----------------------|
---------------------------------------|----------------------|
---------------------------------------|----------------------|
---0---5b(5)---3--3---5b(5)---3~~~~~~~-|----------------------|

0:45 Play Riff A only play 2x not 3x

Verse 1
Pm----------------------------------------------------------|
-------------------------|----------------------------------|
-------------------------|----------------------------------|
-------------------------|-Play 3x--------------------------|
-------------------------|----------------------------------|
-------------------------|----------------------------------|
-0--7----6--6---5--3b----|-----Only bend 1/4 up on the 3----|

Riff B        Pm---|
---------------------------------------|
---------------------------------------|
---------------------------------------|
---------------------------------------|
---------------------------------------|
---0---5b(5)---3--3---5b(5)---3~~~~~~~-|

1:02 Pre-Chorus
    Pm-------------|                 Pm---------------------------|
-------------------------------|----------------------------------|
-7-----------------------------|--8-------------------------------|
-6----6---6---6---6-----6---6--|--7----7---7---7---7-----7---7----|
-4----4---4---4---4-----4---4--|--5----5---5---5---5-----5---5----|
-4-----------------------------|--5-------------------------------|
-------------------------------|----------------------------------|

    Pm------------------------------------------------------------------|
-------------------------------|----------------------------------------|
-9-----------------------------|--10----10----10----10----10------------|
-8----8---8---8---8---8---8----|--9-----9-----9-----9-----9-------------|
-6----6---6---6---6---6---6----|--7-----7-----7-----7-----7-------------|
-6-----------------------------|----------------------------------------|
-------------------------------|---------------------------------/12\---|

1:09 Chorus
---------------------------------|----------------------------------|
---------------------------------|----------------------------------|
---------------------------------|----------------------------------|
---------------------------------|----------------------------------|
---------------------------------|----------------------------------|
--0-----3b----0---5b-----0---5---|---0-----3b----0---5b-----0---5b--|

---------------------------------|-------------------------------------|
---------------------------------|--3----3----3----3-------------------|Play
---------------------------------|--0----0----0----0----2---2---2---2--|2x
---------------------------------|--0----0----0----0----2---2---2---2--|
---------------------------------|--x----x----x----x----0---0---0---0--|
--0-----3b----0---5b-----0---5---|--3----3----3----3-------------------|

Play Riff A 3x

Play Verse 1 (just like before play it 3x)

Play Riff B

Play Riff A 2x

Play Riff B

Play Riff A 4x

Play Pre-Chorus

Play Chorus 2x

Solo:  /\/\/\/\ Means pick slide back and forth while sliding NOT whammy bar
----------------------------------|---------------------------------------|
-\/\/\/\/\/\/\/\/\/\/\/\/\/\/\/\/\|/\/\/\/\/\/\/\\/\/\/\/\/\/\/\/\/\/\/\/\|
-\/\/\/\/\/\/\/\/\/\/\/\/\/\/\/\/\|/\/\/\/\/\/\/\/\/\/\/\/\/\/\/\/\/\/\/\/|
-/\/\/\/\/\/\/\/\/\/\/\/\/\/\/\/\/|/\/\/\/\/\/\/\/\/\/\/\/\/\/\/\/\/\/\/\/|
-/\/\/\/\/\/\/\/\/\/\/\/\/\/\/\/\/|/\/\/\/\/\/\/\/\/\/\/\/\/\/\/\/\/\/\/\/|
----------------------------------|---------------------------------------|

----------------------------------|---------------------------------------|
-\/\/\/\/\/\/\/\/\/\/\/\/\/\/\/\/\|/\/\/\---------------------------------|
-\/\/\/\/\/\/\/\/\/\/\/\/\/\/\/\/\|/\/\/\---------------------------------|
-/\/\/\/\/\/\/\/\/\/\/\/\/\/\/\/\/|/\/\/\---------------------------------|
-/\/\/\/\/\/\/\/\/\/\/\/\/\/\/\/\/|/\/\/\---------------------------------|
----------------------------------|---------------------------------------|
~~~ means vibrato
---------------------|-----------------------------|
--17b-----17-17b(17r)|-17b~~~~(17r)p14-17b--17b---0|
---------------------|-----------------------------|
---------------------|-----------------------------|
---------------------|-----------------------------|
---------------------|-----------------------------|

--19b-(19b)-(19r)19--17-19-|-19b--(19r)p17--------------|-----|--------|---|
---------------------------|---------------19---19~~~~~-|-12~~|~~~~12~~|~~~|
---------------------------|----------------------------|-----|--------|---|
---------------------------|----------------------------|-----|--------|---|
---------------------------|----------------------------|-----|--------|---|
---------------------------|----------------------------|-----|--------|---|

Play Chorus 8x


Ledgend:

b = bend
r = release
p = pull off
h = hammer on
~~~ = vibrato
/\/\/\/\ = pick slide
()= play sorftly or stirke not again during a bend
Pm---| = palm mute
x = mute
Tap to rate this tab
# A B C D E F G H I J K L M N O P Q R S T U V W X Y Z