Song name
# A B C D E F G H I J K L M N O P Q R S T U V W X Y Z

Motley Crue - Girls Girls Girls tab

Hello! This is my very first tab here on Ultimate-Guitar.com and I hope you Motley Crue 
enjoy it! These should be pretty damn close!!!

Girls, Girls, Girls
Motley Crue

Drop D Tuning - DGCFAD

h -hammer on
p -pull off
b -bend
/ -slde up
\ -slide down
PM -palm mute
^ -use bar
~ -let ring

[[note]] The lyrics and the tabs do not match up. For instance, when you get to "I need 
fight", the tabs are not lined up with it. You'll have to listen to the hit to match it 
[[/note]]

Intro - [Motorcycle sounds then guitar]
d|---1--------(1)-----------------------------1--------(1)t----------|
B|---1--------(1)-----------------------------1--------(1)-r---------|
G|---2--------(2)-----------------------------2--------(2)--e--------|
D|---3--------(3)-----------------------------3--------(3)---m-------|
A|---3--------(3)-----------------------------3--------(3)----ba-----|
D|---3--------(3)-----------------------------3--------(3)------r----|


                                             PM
d|-------------------------------------------------------------------|
B|---------------------------------3-------------3-------------------|
G|---------------------------------2-------------2-------------------|
D|---3/5--3-----------------------------------------------3----------|
A|---3/5--3----/3\2---------------------x----0-------x----3----------|
D|------------0/3\2---0--(0)---(0)------x----0-------x---------------|

                                   PM---|     PM-----------------------|
d|---------------------------------------------------------------------|
B|---------------------------------------------------------------------|
G|---------------------------------------------------------------------|
D|-(3)/5--3--------------0------0----------0----------3----------------|
A|-(3)/5--3----/3\2------0------0----------0----------3----------------|
D|------------0/3\2---0--0------0---3--4---0---3--4--------------------|

                                          PM
d|-------------------------------------------------------------------|
B|---------------------------------3------------3--------------------|
G|---------------------------------2------------2--------------------|
D|-(3)/5\3-----------------------------------------------3-----------|
A|-(3)/5\3-----/3\2------0--(0)-------x----0--------x----3-----------|
D|------------0/3\2---0--0--(0)-------x----0--------x----------------|


                                   PM---|     PM-----------------------|
d|---------------------------------------------------------------------|
B|---------------------------------------------------------------------|
G|---------------------------------------------------------------------|
D|-(3)/5\3---------------0------0----------0---------------------------|
A|-(3)/5\3-----/3\2------0------0----------0---------------------------|
D|------------0/3\2---0--0------0---3--4---0---0--3--4-----------------|

1. Friday night and I need a fight, my motorsycle and a
2. Crazy Horse, Paris, France, forgot the names re
                                          ^
d|--------------------------------------------------------------------|
B|---0----------------------(0)------------------------------0--------|
G|---0----------------------(0)-----------5----(5)-----------0--------|
D|---0----------------------(0)-----------5----(5)-----------0--------|
A|----------------------------------------3----(3)--------------------|
D|---5----------------------(5)------5-------------------3---5--------|

1. switch-blade knife. Hand ful of grease and my hair feels right, but
2. member romance. I got the photos, a ménage a trois,
                        ^                                          ^
d|------------------------------------------------------------------------|
B|--(0)----------7-----(7)--------------0---------(0)---------5----5------|
G|--(0)----------7-----(7)--------------0---------(0)---------5----5------|
D|--(0)----------7-----(7)--------------0---------(0)---------5----5------|
A|---------------5-----(5)------------------------------------3----3------|
D|--(5)------5-----------------5---3----5---------(5)------5------------3-|

1. what I need to make me tight are thos girls, girls, girls.
2. must broke those Frenchies' laws with those girls, girls, girls. B-b-bod-

d|------------------------------------------------------------------------|
B|---0-------------5\4/5\4/5\4/5\4-----------------------------------3----|
G|---0---------------------------------3/5--3--3---------------------2----|
D|---0-------------3\2/3\2/3\2/3\2-----3/5--3--3--------------------------|
A|--------------------------------------------------/3\2------------------|
D|---5---------------------------------------------0/3\2---0--0---(0)-----|

    PM
-------------------|
--------3----------|
--------2----------|
----------------3--|
-x--0-------x---3--|
-x--0-------x------|

1. Long legs and burgundy lips. Girls, girls, girls.
2. yshop and the Marble Arch. Girls, girls, girls.

d|---------------------------------------------------------------------|
B|---------------------------------------------------------------------|
G|--------------------------------------------------------3-3--3/5\3---|
D|--(3)/5---3----------------0-----0----------------------3-3--3/5\3---|
A|--(3)/5---3----/3\2--------0-----0------------0----------------------|
D|--------------0/3\2---0----0-----0----3---4-------3---4--------------|

-------------------|
-------------------|
----------------0--|
----------------0--|
-------8\7---------|
--5----8\7---5--5--|

NOT FINISHED!!! I hope I can edit this, but I'm out for now. Thanks, comment and I'll keep postin'!

Enjoy!
Tap to rate this tab
# A B C D E F G H I J K L M N O P Q R S T U V W X Y Z