Song name
# A B C D E F G H I J K L M N O P Q R S T U V W X Y Z

Motley Crue - Too Fast For Love tab

Mötley Crüe - Too Fast For Love
Tabbed by: Marcus

The song is taken from the album "Mötley Crüe the universal masters collection" and here it goes..


(the timing is not correct)

e-------------------------------------------------------------------------|
B-------------------------------------------------------------------------|
G-------------------------------------------------------------------------|
D-------------------------------------------------------------------------|
A--0-2-0-3-0-4-0-5-0-6-0-6h7-6h7-------0-2-0-3-0-4-0-5-0-6-0-6h7-6h7------|
E-------------------------------------------------------------------------|


e-------------------------------------------------------------------------|
B-------------------------------------------------------------------------|
G-------------------------------------------------------------------------|
D--0-2-0-3-0-4-0-5-0-6-0-6h7-6h7-------0-2-0-3-0-4-0-5-0-6-0-6h7-6h7------|
A-------------------------------------------------------------------------|
E-------------------------------------------------------------------------|


e-------------------------------------------------------------------------|
B-------------------------------------------------------------------------|
G-------------------------------------------------------------------------|
D-------------------------------------------------------------------------|
A--0-2-0-3-0-4-0-5-0-6-0-6h7-6h7-------0-2-0-3-0-4-0-5-0-6-0-6h7-6h7------|
E-------------------------------------------------------------------------|


e-------------------------------------------------------------------------|
B-------------------------------------------------------------------------|
G-------------------------------------------------------------------------|
D--0-2-0-3-0-4-0-5-0-6-0-6h7-6h7-------0-2-0-3-0-4-0-5-0-6-0-6h7-6h7------|
A-------------------------------------------------------------------------|
E-------------------------------------------------------------------------|


e-------------------------------------------------------------------------|
B-------------------------------------------------------------------------|
G-------------------------------------------------------------------------|
D-------------------------------------------------------------------------|
A--0-2-0-3-0-4-0-5-0-6-0-6h7-6h7-------0-2-0-3-0-4-0-5-0-6-0-6h7-6h7------|
E-------------------------------------------------------------------------|


e-------------------------------------------------------------------------|
B-------------------------------------------------------------------------|
G-------------------------------------------------------------------------|
D--0-2-0-3-0-4-0-5-0-6-0-6h7-6h7-------0-2-0-3-0-4-0-5-0-6-0-6h7-6h7------|
A-------------------------------------------------------------------------|
E-------------------------------------------------------------------------|


e-------------------------------------------------------------------------|
B-------------------------------------------------------------------------|
G-------------------------------------------------------------------------|
D-------------------------------------------------------------------------|
A-55555-55555-55555-55555-55555-55555-77777-77777-77777-77777-77777-77777-|
E-33333-33333-33333-33333-33333-33333-55555-55555-55555-55555-55555-55555-|


e-------------------------------------------------------------------------|
B-------------------------------------------------------------------------|
G-------------------------------------------------------------------------|
D-------------------------------------------------------------------------|
A--0-2-0-3-0-4-0-5-0-6-0-6h7-6h7-------0-2-0-3-0-4-0-5-0-6-0-6h7-6h7------|
E-------------------------------------------------------------------------|


e-------------------------------------------------------------------------|
B-------------------------------------------------------------------------|
G-------------------------------------------------------------------------|
D-------------------------------------------------------------------------|
A-55555-55555-55555-55555-55555-55555-77777-77777-77777-77777-77777-77777-|
E-33333-33333-33333-33333-33333-33333-55555-55555-55555-55555-55555-55555-|


e-------------------------------------------------------------------------|
B-------------------------------------------------------------------------|
G-------------------------------------------------------------------------|
D-------------------------------------------------------------------------|
A--0-2-0-3-0-4-0-5-0-6-0-6h7-6h7-------0-2-0-3-0-4-0-5-0-6-0-6h7-6h7------|
E-------------------------------------------------------------------------|

PM_________________________________________________*
e-------------------------------------------------------------------------|
B-------------------------------------------------------------------------|
G-------------------------------------------------------------------------|
D----------------------------------------------------55-44-22-00----------|
A-4444444444444444-2222222222222222-9999999999999999-------------33-22-00-|
E-2222222222222222-0000000000000000-7777777777777777----------------------|


PM_________________________________________________*
e-------------------------------------------------------------------------|
B-------------------------------------------------------------------------|
G---------------------------------------------------------10br------------|
D----------------------------------------------------------9br------------|
A-4444444444444444-2222222222222222-9999999999999999----------------------|
E-2222222222222222-0000000000000000-7777777777777777----------------------|


e-------------------------------------------------------------------------|
B-------------------------------------------------------------------------|
G-------------------------------------------------------------------------|
D-------------------------------------------------------------------------|
A--0-2-0-3-0-4-0-5-0-6-0-6h7-6h7-------0-2-0-3-0-4-0-5-0-6-0-6h7-6h7------|
E-------------------------------------------------------------------------|


e-------------------------------------------------------------------------|
B-------------------------------------------------------------------------|
G-------------------------------------------------------------------------|
D-------------------------------------------------------------------------|
A-55555-55555-55555-55555-55555-55555-77777-77777-77777-77777-77777-77777-|
E-33333-33333-33333-33333-33333-33333-55555-55555-55555-55555-55555-55555-|


e-------------------------------------------------------------------------|
B-------------------------------------------------------------------------|
G-------------------------------------------------------------------------|
D-------------------------------------------------------------------------|
A--0-2-0-3-0-4-0-5-0-6-0-6h7-6h7-------0-2-0-3-0-4-0-5-0-6-0-6h7-6h7------|
E-------------------------------------------------------------------------|


PM_________________________________________________*
e-------------------------------------------------------------------------|
B-------------------------------------------------------------------------|
G-------------------------------------------------------------------------|
D----------------------------------------------------55-44-22-00----------|
A-4444444444444444-2222222222222222-9999999999999999-------------33-22-00-|
E-2222222222222222-0000000000000000-7777777777777777----------------------|


PM_________________________________________________*
e-------------------------------------------------------------------------|
B-------------------------------------------------------------------------|
G-------------------------------------------------------------------------|
D-------------------------------------------------------------------------|
A-4444444444444444-2222222222222222-9999999999999999---------5-66-7-------|
E-2222222222222222-0000000000000000-7777777777777777---------3-44-5-------|


PM_________________________________________________*
e-------------------------------------------------------------------------|
B-------------------------------------------------------------------------|
G-------------------------------------------------------------------------|
D-------------------------------------------------------------------------|
A-4444444444444444-2222222222222222-9999999999999999-----------66-53------|
E-2222222222222222-0000000000000000-7777777777777777-----------44-33------|


PM_________________________________________________*
e-------------------------------------------------------------------------|
B-------------------------------------------------------------------------|
G-------------------------------------------------------------------------|
D-------------------------------------------------------------------------|
A-4444444444444444-2222222222222222-9999999999999999---------5------------|
E-2222222222222222-0000000000000000-7777777777777777---------3------------|


PM_________________________________________________*
e-------------------------------------------------------------------------|
B-------------------------------------------------------------------------|
G-------------------------------------------------------------------------|
D-------------------------------------------------------------------------|
A-4444444444444444-2222222222222222-9999999999999999-----------66-53------|
E-2222222222222222-0000000000000000-7777777777777777-----------44-33------|


PM_________________________________*
e-------------------------------------------------------------------------|
B-------------------------------------------------------------------------|
G-------------------------------------------------------------------------|
D-------------------------------------------------------------------------|
A-4444444444444444-2222222222222222---------------------------------------|
E-2222222222222222-0000000000000000---------------------------------------|


e---------------------------------9---------------5-------------------------|
B--------------------------9-----8--------------5---------------------------|
G----------------9-------8-----7--------------7-----------------------------|
D-----9--------8-------7-------------------5--------------------------------|
A---8-------7---------------------------4----------------0-0-1--------------|
E-7-------------------------------------------------------------------------|


e-------------------------------------------------------------------------|
B-------------------------------------------------------------------------|
G-------------------------------------------------------------------------|
D-------------------------------------------------------------------------|
A-4444444444444444-2222222222222222-9999999999999999-----------66-53------|
E-2222222222222222-0000000000000000-7777777777777777-----------44-33------|

__________________________________________________________________________
___________________________End_Of_The_Song________________________________


BUY MÖTLEY CRÜEs ALBUM "RED WHITE AND CRÜE!!!






HIP HOP SUX
Tap to rate this tab
 
# A B C D E F G H I J K L M N O P Q R S T U V W X Y Z