Song name
# A B C D E F G H I J K L M N O P Q R S T U V W X Y Z

Motley Crue - Nona tab

Motley Crue - Nona
Tabbed By: imthebeststd
EMail: bighabit69@iamwasted.com


   D                   D+                    Bm              D/G          D      Repeat as many times needed  
|-----2--------0-2----------2-----0--2-----|----2------0-2--------2-----0-2----|
|--------3----------3---------3--------3---|-------3-------3--------3-------3--|
|----------------------2--3-----3---------3|--4------4-------4-0------0-------2|
|--0---------0-----------------------------|-----------------------------------|
|------------------------------------------|-----------------------------------|
|------------------------------------------|-----------------------------------|

  D                   D+                     Bm             D/G               D    
|-----2-------0--2---------2-----0-2------|---2-----0-2-------2-----0-2-3---|-------|
|--------3---------3---------3-------3----|-----3-------3-------3-----------|-3-----|
|---------------------2-3------3-------3--|-4-----4-------4-0-----0-----3-4-|-2-----|
|--0--------0-----------------------------|---------------------------------|-0-----|
|-----------------------------------------|---------------------------------|-0-----|
|-----------------------------------------|---------------------------------|-------|
Tap to rate this tab
# A B C D E F G H I J K L M N O P Q R S T U V W X Y Z