Song name
# A B C D E F G H I J K L M N O P Q R S T U V W X Y Z

Motley Crue - Same Old Situation tab

Help us improve GuitareTab! Take a short survey!
Motley Crue
Same Ol Situation Solo


This is the correct version of the solo in Same Ol Situation   
 
-------------------------------------------------|
---------------------------------------------12--|
---L--16b---L----16b---L---L---L--16b---L--------|
-------------------------------------------------|
-------------------------------------------------|
-------------------------------------------------|


   
--12----14----15----12----12----14----15----12----|--12----14----15----12----12----14----15---5--|
-----12----12----12----12----12----12----12----12-|-----12----12----12----12----12----12------5--|
--------------------------------------------------|----------------------------------------------|
--------------------------------------------------|----------------------------------------------|
--------------------------------------------------|----------------------------------------------|
--------------------------------------------------|----------------------------------------------|



--L--5----------------------|--------------------------|
-----5--7------5--7------5--|---------------------15b--|
--------7br----5--7br----5--|--7--5-----5--5-----------|
----------------------------|--------7-----------------|
----------------------------|--------------------------|
----------------------------|--------------------------|

                                                            
     
---------------------------------------------|-------------------------------------------|
--L--15--12----------------------------------|-------------------------------------------|
------------15p-14-12h-14p-12-14--12--14p-12-|------14--14--12------------------14--16b--|
---------------------------------------------|--14--------------14--12------16-----------|
---------------------------------------------|--------------------------14---------------|
---------------------------------------------|-------------------------------------------|


--------------------------------|--------------------------------|---------------------------|
--------------------------------|---------15--16--17-------------|---------------------------|
--L--16--14------14--14----16b--|--L--16--------------16~---16---|--L\---<>7----------7b-----|
-------------16-----------------|--------------------------------|----------------9-------9--|
--------------------------------|--------------------------------|---------------------------|
--------------------------------|--------------------------------|---------------------------|

                               
--------------------------|-----------|-------||
--------------------------|-----------|-------||
--7--7b-----7b------------|-----------|-------||
---------9------9~--------|-----------|-------||
--------------------------|-----------|-------||
--------------------------|-----------|-------||
Related for Same Old Situation tab