Song name
# A B C D E F G H I J K L M N O P Q R S T U V W X Y Z

Motley Crue - If I Die Tomorrow tab

Tuning: D,G,C,F,E,D
Song: If i die tomorrow
Artist: Motley Crue
Album: Red White and Crue
Year: 2005

Rhythm Figure 1
D|-------------------------------------------------------------|
E|-------------------------------------------------------------|
F|-------0==------------0==------------0==------------0==------|
C|-----2----2---2-----2----2---2-----2----2---2-----4----4---4-|
G|---2--------2-----2--------2-----3--------3-----5--------5---|
D|-0--------------0--------------0--------------0--------------|
play twice 

Rhythm figure 2 (guitar one)
D|-----------------------------------|
E|-----------------------------------|
F|-----------------------------------|
C|-0-2-0-2-0-2-0-2====0-2-0-2-5-4====|
G|-0-2-0-2-0-2-0-2====0-2-0-2-5-4====|
D|-----------------------------------|
play twice

Rhythm figure 2 (guitar two)(There is two guitars in the recording, im pretty sure)
D|-------------------------------------|
E|-------------------------------------|
F|-------------------------------------|
C|-0-2-0-2-0-2-0-2====0-2-0-2-4b5r4~~~~|
G|-------------------------------------|
D|-------------------------------------|

Rhythm Figure 3 (guitar one)
D|-----------------------------------------------------------------|
E|-----------------------------------------------------------------|
F|-----------------7-7-7-7-7-7-7-7-9-9-9-9-9-9-9-9-5-5-5-5-5-5-5-5-|
C|-5-5-5-5-5-5-5-5-7-7-7-7-7-7-7-7-9-9-9-9-9-9-9-9-5-5-5-5-5-5-5-5-|
G|-5-5-5-5-5-5-5-5-5-5-5-5-5-5-5-5-7-7-7-7-7-7-7-7-3-3-3-3-3-3-3-3-|
D|-3-3-3-3-3-3-3-3-------------------------------------------------|

D|------------------------------------------|
E|------------------------------------------|
F|-----------------7-7-7-7-7-7-7-7-9========|
C|-7-7-7-7-7-7-7-7-7-7-7-7-7-7-7-7-9========|
G|-7-7-7-7-7-7-7-7-5-5-5-5-5-5-5-5-7========|
D|-5-5-5-5-5-5-5-5--------------------------|

Rhythm figure 3 (guitar two)
D|---------------------------------|
E|-----8-------8-------8-------8---|
F|---7---7---7---7---7---7---7---7-|
C|-5-------5-------4-------4-------|
G|---------------------------------|
D|---------------------------------|
this is only heard for a short time in the song

Here is the structure
intro: Rhythm figure 1, then 2
Verses: rythm figure 1

Try playing it like this.  You may be surprised at how good it sounds.  It sounds really good to me.
~shredder
Tap to rate this tab
# A B C D E F G H I J K L M N O P Q R S T U V W X Y Z