Guitaretab - guitar tabs
Song name
# A B C D E F G H I J K L M N O P Q R S T U V W X Y Z

Motley Crue - Take Me To The Top tab

This is probably my favorite Crue solo, and again I couldn't find it anywhere, so here 
is...enjoy.  Please rate..


d-|----------------------------------------------|
a-|--(5h6p5)---5~~--(5h6p5)---5-6---5------------|
f-|----------7--------------7-----7---5-7-4-5~~--|
c-|----------------------------------------------|
g-|----------------------------------------------|
d-|----------------------------------------------|

d-|----------------------------------------------|
a-|----------------------------------------------|
f-|--(7h8p7)-5-7~~--(7h8p7)-5-7-8-5-7-3-5-2-3~~--|
c-|----------------------------------------------|
g-|----------------------------------------------|
d-|----------------------------------------------|

d-|----------------------------------------|
a-|----------------------3-5---3-5--6-8----|
f-|------1-2-4--1-2-4--5-----5-------------|
c-|--2-4-----------------------------------|
g-|----------------------------------------|
d-|----------------------------------------|

d-|---------------7-8-----/(15b17)~~---------|
a-|--10------8-10-----10---------------------|
f-|-----9-10------------------------------5--|
c-|-----------------------------------3---5--|
g-|-----------------------------------3---3--|
d-|-----------------------------------1------|

d-|------------------------------------------------------------------------|
a-|--(20b22)~~-22-22-(20b22)~~-22-22-22-(20b22)-(20b22)-(20b22)-(20b22)~~--|
f-|------------------------------------------------------------------------|
c-|------------------------------------------------------------------------|
g-|------------------------------------------------------------------------|
d-|------------------------------------------------------------------------|
[ Tab from: http://www.guitaretab.com/m/motley-crue/58570.html ]
d-|--------------------------------------------------------|
a-|--(20b22r20)--17-(20p17)----17--------------------------|
f-|-------------------------19----(17h19p17)----17-17------|
c-|------------------------------------------19------------|
g-|--------------------------------------------------------|
d-|--------------------------------------------------------|

d-|-------------------------------------------------------|
a-|-------------------------------------------------------|
f-|-------------------------------------------------------|
c-|--19-19--17-17-----------------------------------------|
g-|----------------19-19--17-17--15-15--------------------|
d-|-------------------------------------(17b19)~~---------|

d-|---------------------------------------------------15--|
a-|-------------------------------15-17------15-17-18-----|
f-|-----------14-16------14-16-17-------17----------------|
c-|--14-15-17-------17------------------------------------|
g-|-------------------------------------------------------|
d-|-------------------------------------------------------|


    /--3---\   /--3---\   /--3---\   /--3---\----|
d|-----------------------------------------------|
a|--17-18-20---17-18-20---17-18-20---17-18-20----|
f|-----------------------------------------------|
c|-----------------------------------------------|
g|-----------------------------------------------|
d|-----------------------------------------------|

    /--3---\   /--3---\   /--3---\   /--3---\----|
d|-----------------------------------------------|
a|--17-18-20---17-18-20---17-18-20---17-18-20----|
f|-----------------------------------------------|
c|-----------------------------------------------|
g|-----------------------------------------------|
d|-----------------------------------------------|

d|-------|
a|-------|
f|---2---|
c|---2---|
g|---0---|
d|-------|

I'll have some more solos coming when i get the chance to post them..Starry eyes. public 
#1, come on and dance,
 and some theater of pain stuff coming soon...any other Motley requests..let me know
Related for Take Me To The Top tab
Advertisement will be closed in 10 seconds