Song name
# A B C D E F G H I J K L M N O P Q R S T U V W X Y Z

Motley Crue - Tonight We Need A Lover tab

More Crue solos.  This one is real easy.  Enjoy and I've got more on the way,  please rate.


d-|-----------------|------------------|------------------|----------------|
a-|-----------------|------------------|------------------|----------------|
f-|-9\--------------|-5\---------------|-7\---------------|-9\-------------|
c-|-9\--------------|-5\---------------|-7\---------------|-9\-------------|
g-|-----------------|------------------|------------------|----------------|
d-|----0-0-0-0-0-0--|-----0-0-0-0-0-0--|-----0-0-0-0-0-0--|----0-0-0-0-0-0-|


                                     GTR 1
d-|-(7)------------|-(8)--------------|-(10)-------------|-(12)-(22b24)-22-|
a-|-(8)------------|-(8)--------------|-(10)-------------|-(12)------------|
f-|----------------|------------------|------------------|-----------------|
c-|----------------|------------------|------------------|-----------------|
g-|----------------|------------------|------------------|-----------------|
d-|----------------|------------------|------------------|-----------------|
                                     GTR 2
d-|----------------|------------------|------------------|----------------|
a-|----------------|------------------|------------------|----------------|
f-|-9\-------------|--5\--------------|--7\--------------|--9\------------|
c-|-9\-------------|--5\--------------|--7\--------------|--9\------------|
g-|----------------|------------------|------------------|----------------|
d-|---0-0-0-0-0-0--|----0-0-0-0-0-0---|----0-0-0-0-0-0---|----0-0-0-0-0-0-|

d-|--(22b24)-(22b24)~~--|--19-20-22---19-(19h20p19)---------------|
a-|---------------------|---------------------------(22b24)~~-----|
f-|---------------------|-----------------------------------------|
c-|---------------------|-----------------------------------------|
g-|---------------------|-----------------------------------------|
d-|---------------------|-----------------------------------------|

d-|---------------------|-------------------|---------------------|
a-|---------------------|-------------------|---------------------|
f-|-(2b4)-4-4-4-4-(4R2)-|-------------------|-----9-----9--11-12--|
c-|------HOLD-BEND------|--(0h2p0)tr~--2~~--|--/9----/9-----------|
g-|---------------------|-------------------|---------------------|
d-|---------------------|-------------------|---------------------|

d-|---------------------|--------------------------------------------------|
a-|---------------------|--------------------------------------------------|
f-|--11-12-(11h12p11)---|-------------------------------(14b16r14)-12------|
c-|---------------------|--------------------------1212---------------14~~-|
g-|---------------------|-----------1010-1212-1414-------------------------|
d-|---------------------|-1010-1212----------------------------------------|

d-|---------------------|----------------------|-------|---------------|
a-|---------------------|----------------------|-------|---------------|
f-|---------------------|------4-5--(4h5p4p0)--|-------|---------------|
c-|---5--4-5--(4h5p4p0)-|---7------------------|-------|---------------|
g-|---3-----------------|---5------------------|--7~~--|--(7)--7-9-10--|
d-|---------------------|----------------------|-------|---------------|

d-|------------------|-------|----------|----------|-------|-----------|
a-|------------------|-------|----------|----------|-------|-----------|
f-|------------------|-------|----------|----------|-------|-----------|
c-|------------------|-------|------7---|---9-10---|--9~~--|---(9)-----|
g-|--10-9--7-7/9~~---|--(9)--|---10-----|----------|-------|-----------|
d-|------------------|-------|----------|----------|-------|-----------|

d-|-------|---------------|------------------|-------|----------|------|
a-|-------|---------------|------------------|-------|----------|------|
f-|-------|---------------|------------------|-------|----------|------|
c-|-------|---------------|------------------|-------|------7---|-9-10-|
g-|--7~~--|--(7)--7-9-10--|---10-9--7-7/9~~--|--(9)--|---10-----|------|
d-|-------|---------------|------------------|-------|----------|------|

d-|-------|-------------------|----------|
a-|-------|-------------------|----------|
f-|-------|-------------------|----------|
c-|--9~~--|---(9)-------------|----------|
g-|-------|---------(9h10p9)--|---7~~----|
d-|-------|-------------------|----------|

Starry eyes, public enemy #1, and Tonite on the way soon, followed by Toast of the town 
stick to your guns..
seems like so many of these previous tabs are jacked..hope these are clearing it 
out my other tabs as well
Tap to rate this tab
 
# A B C D E F G H I J K L M N O P Q R S T U V W X Y Z