Song name
# A B C D E F G H I J K L M N O P Q R S T U V W X Y Z

Motley Crue - Keep Your Eye On The Money tab

As promised here is another Crue solo..Mick pretty much hits a harmonic on every note in 
one, so to get the effect
just try to get a squeal on all the notes played.  I think i'm going to go with 
need a lover) solo next.  Please rate.  Thanks and enjoy!!

d-|--------------------------------------|--------------------|
a-|--(13b15)--(10b11)--------------------|--------------------|
f-|--------------------(12b13)--(10b11)--|--------------------|
c-|--------------------------------------|--12--10------------|
g-|--------------------------------------|----------12\10--8--|
d-|--------------------------------------|--------------------|

d-|-----------------------------|---------------------------------|
a-|-----------------------------|---------------------------------|
f-|-----------10-(10b11)--------|--(10b11)-(10b11)----------------|
c-|--/12~~---------------12-----|-------------------12--10--12~~--|
g-|-------------------------12--|---------------------------------|
d-|-----------------------------|---------------------------------|

d-|------------------------------|--------------------------|
a-|------------------------------|--------------------------|
f-|------------------------------|--------------------------|
c-|------------------------------|--------------------------|
g-|--(8b9)-------(8b9)-(8b9)-----|--(8b9)-(8b9)-------------|
d-|---------10-8-------------10--|---------------10-8-10~~--|

d-|--------------------------------------|-------------------------------|
a-|--------------------------------------|-------------------------------|
f-|--10---10---------(10b11)-------------|--------(10b11)-(10b11)--------|
c-|----------12--------------12-10-12~~--|--(12)------------------12~~---|
g-|-------------12-----------------------|-------------------------------|
d-|--------------------------------------|-------------------------------|

d-|-----------------------------|--------------------|-------------------|
a-|-----------------------------|--------------------|-------------------|
f-|--(7b8)-5--------------------|--------------------|-------------------|
c-|----------6-7-5--------------|--------------------|-------------------|
g-|----------------7-6-(3b5)~~--|-3-0--0~~-(0)-------|--3-3-----7-5--\3--|
d-|-----------------------------|-----3--------------|------5-3----------|

d-|--------------------------|---------------------------|
a-|--------------------------|---------------------------|
f-|--------(5b6)-(5b6)-------|---------------------------|
c-|--/7~~---------------7~~--|---------------------------|
g-|--------------------------|--(3b4)-----(3b4)-(3b4)----|
d-|--------------------------|--------5-3-------------5--|

d-|------------------|------------------------------|------------|
a-|------------------|------------------------------|------------|
f-|------------------|------------------------------|------------|
c-|------------------|------------------------------|------------|
g-|--3-3-----0\dive--|--(3b4)--(3b4)-0---(3b4)-0----|---0\dive---|
d-|------5-3---------|-----------------3---------3--|------------|


Thats a pretty easy number, but cool none-the-less.  Hope all these solos i'm posting 
right to you guys.
Nothing worse than someone constantly posting crappy tabs..corrections??  let me know.
Tap to rate this tab
# A B C D E F G H I J K L M N O P Q R S T U V W X Y Z