Song name
# A B C D E F G H I J K L M N O P Q R S T U V W X Y Z

Motograter - Down tab

Tab by: webbster87
Band: Motograter
Album: Motograter
Song: Down
Tuning:CGCFAD

Intro
guitar 1 riff A do this till (0:37)
-------------------------------------------------|
-------------------------------------------------|
-0-0-2-2-3-3-2-2-0-2-2-2-2-2-2-2-----------------|
-------------------------------------------------|
-------------------------------------------------|x?
-------------------------------------------------|

both guitars riff A enters at (0:37)to(0:58)
-------------------------------------------------|
-------------------------------------------------|
-------------------------------------------------|
-------------------------------------------------|
-3-5-3-------------------------------------------|x?
-3-5-3-------------------------------------------|

guitar 1 riff A (after guitar 2 riff A finishes)
-------------------------------------------------|
-------------------------------------------------|
-0-0-2-2-3-3-2-2-0-2-2-2-2-2-2-2-----------------|
-------------------------------------------------|
-------------------------------------------------|x?
-------------------------------------------------|

guitar 2 riff B at (1:23) then repeat (both guitars riff A)
-------------------------------------------------|
-------------------------------------------------|
-------------------------------------------------|
-------------------------------------------------|
-/9--3-5-3---------------------------------------|
-/9--3-5-3---------------------------------------|
guitar 2 riff C at (2:07)to(2:37)
-------------------------------------------------|
-------------------------------------------------|
-------------------------------------------------|
-------------------------------------------------|
-0-0-----0-0-------------------------------------|x?
-0-0-----0-0-------------------------------------|

guitar 1 riff C at (2:16)to(2:36)
-------------------------------------------------|
-5-6-6-5-5-6-6-5-5-8-8-8-8-5-6-6-5-5-6-6-5-3-----|
-------------------------------------------------|
-------------------------------------------------|x2
-------------------------------------------------|
-------------------------------------------------|

both guitars riff (2:37)to(2:56)    [  then this till 3:15  ]
[--------------------------------]  [-----------------------]
[--------------------------------]  [-----------------------]
[--------------------------------]  [-----------------------]
[--------------------------------]x?[-----------------------]x?
[-3-5-3-5-3-5-3-5-3-5-3-5-3-5-3--]  [-3-5-3-5-3-5-----------]
[-3-5-3-5-3-5-3-5-3-5-3-5-3-5-3--]  [-3-5-3-5-3-5-----------]

both guitars riff B (outro)
-------------------------------------------------|
-------------------------------------------------|
-------------------------------------------------|
-------------------------------------------------|x3
-3-5-3----0-0--0-0-------------------------------|
-3-5-3----0-0--0-0-------------------------------|


guitar 1 Riff D near middle of x2 of outro
-0-3-0-3-----------------------------------------|
-------------------------------------------------|
-------------------------------------------------|
-------------------------------------------------|
-------------------------------------------------|x1
-------------------------------------------------|

FIRST TAB I'VE DONE!!!
Tap to rate this tab
 
# A B C D E F G H I J K L M N O P Q R S T U V W X Y Z