Guitaretab - guitar tabs
Song name
# A B C D E F G H I J K L M N O P Q R S T U V W X Y Z

Motograter - No Name tab

----------------------------------------------------------------------------
			     No Name  Motograter
----------------------------------------------------------------------------
Tabbed by: Shock J
Email: jrkurth@yahoo.com

Tuning: Drop A (A E A D F# B)

B |------------------------------------------------------------------------|
F#|------------------------------------------------------------------------|
D |------------------------------------------------------------------------|
A |--------------------------------1-0-6-0-1-0-00-01-0-6-0-1-0-0000--------|
E |--------------------------------1-0-6-0-1-0-00-01-0-6-0-1-0-0000--------|
A |1-0-6-0-1-0-----1-0-6-0-1-0-----1-0-6-0-1-0-00-01-0-6-0-1-0-0000--------|

B |------------------------------------------------------------------------|
F#|------------------------------------------------------------------------|
D |------------------------------------------------------------------------|
A |1-0-6-0-1-0-00-01-0-6-0-1-0---------------------------------------------|
E |1-0-6-0-1-0-00-01-0-6-0-1-0---------------------------------------------|
A |1-0-6-0-1-0-00-01-0-6-0-1-0---------------------------------------------|

B |------------------------------------------------------------------------|
F#|------------------------------------------------------------------------|
D |------------------------------------------------------------------------|
A |9--9--9--9--10---9--9--9--9--7---9--9--9--9--10---9--9--9--9--7---------|
E |------------------------------------------------------------------------|
A |------------------------------------------------------------------------|

B |------------------------------------------------------------------------|
F#|------------------------------------------------------------------------|
D |------------------------------------------------------------------------|
A |9--9--9--9--10---9--9--9--9--7---9--9--9--9--10---9--9--9--9--7---------|
E |------------------------------------------------------------------------|
A |------------------------------------------------------------------------|

B |------------------------------------------------------------------------|
F#|------------------------------------------------------------------------|
D |------------------------------------------------------------------------|
A |9--9--9--9--10---9--9--9--9--7---9--9--9--9--10---9--9--9--9--7---------|
E |------------------------------------------------------------------------|
A |------------------------------------------------------------------------|

B |------------------------------------------------------------------------|
F#|------------------------------------------------------------------------|
D |------------------------------------------------------------------------|
A |9--9--9--9--10---9--9--9--9--7---9--9--9--9--10---9--9--9--9--0000------|
E |--------------------------------------------------------------0000------|
A |--------------------------------------------------------------0000------|

B |------------------------------------------------------------------------|
F#|------------------------------------------------------------------------|
D |------------------------------------------------------------------------|
A |2--2--2--2--2---5--5--5--5--5---2--2--2--2--2---5--5--5--5--5-----------|
E |2--2--2--2--2---5--5--5--5--5---2--2--2--2--2---5--5--5--5--5-----------|
A |2--2--2--2--2---5--5--5--5--5---2--2--2--2--2---5--5--5--5--5-----------|

B |------------------------------------------------------------------------|
F#|------------------------------------------------------------------------|
D |------------------------------------------------------------------------|
A |2--2--2--2--2---5--5--5--5--5---2--2--2--2--2---5--5--5--5--5-----------|
E |2--2--2--2--2---5--5--5--5--5---2--2--2--2--2---5--5--5--5--5-----------|
A |2--2--2--2--2---5--5--5--5--5---2--2--2--2--2---5--5--5--5--5-----------|

B |------------------------------------------------------------------------|
F#|------------------------------------------------------------------------|
D |------------------------------------------------------------------------|
A |9--9--9--9--10---9--9--9--9--7---9--9--9--9--10---9--9--9--9--7---------|
E |------------------------------------------------------------------------|
A |------------------------------------------------------------------------|

B |------------------------------------------------------------------------|
F#|------------------------------------------------------------------------|
D |------------------------------------------------------------------------|
A |9--9--9--9--10---9--9--9--9--7---9--9--9--9--10---9--9--9--9--7---------|
E |------------------------------------------------------------------------|
A |------------------------------------------------------------------------|
[ Tab from: http://www.guitaretab.com/m/motograter/132361.html ]
B |------------------------------------------------------------------------|
F#|------------------------------------------------------------------------|
D |------------------------------------------------------------------------|
A |9--9--9--9--10---9--9--9--9--7---9--9--9--9--10---9--9--9--9--7---------|
E |------------------------------------------------------------------------|
A |------------------------------------------------------------------------|

B |------------------------------------------------------------------------|
F#|------------------------------------------------------------------------|
D |------------------------------------------------------------------------|
A |9--9--9--9--10---9--9--9--9--7---9--9--9--9--10---9--9--9--9--0000------|
E |--------------------------------------------------------------0000------|
A |--------------------------------------------------------------0000------|

B |------------------------------------------------------------------------|
F#|------------------------------------------------------------------------|
D |------------------------------------------------------------------------|
A |2--2--2--2--2---5--5--5--5--5---2--2--2--2--2---5--5--5--5--5-----------|
E |2--2--2--2--2---5--5--5--5--5---2--2--2--2--2---5--5--5--5--5-----------|
A |2--2--2--2--2---5--5--5--5--5---2--2--2--2--2---5--5--5--5--5-----------|

B |------------------------------------------------------------------------|
F#|------------------------------------------------------------------------|
D |------------------------------------------------------------------------|
A |2--2--2--2--2---5--5--5--5--5---2--2--2--2--2---5-----------------------|
E |2--2--2--2--2---5--5--5--5--5---2--2--2--2--2---5-----------------------|
A |2--2--2--2--2---5--5--5--5--5---2--2--2--2--2---5-----------------------|

B |------------------------------------------------------------------------|
F#|------------------------------------------------------------------------|
D |------------------------------------------------------------------------|
A |1-0-6-0-1-0-00-01-0-6-0-1-0[000000]-1-0-6-0-1-0-00-01-0-6-0-1-0[000000]-|
E |1-0-6-0-1-0-00-01-0-6-0-1-0[000000]-1-0-6-0-1-0-00-01-0-6-0-1-0[000000]-|
A |1-0-6-0-1-0-00-01-0-6-0-1-0[000000]-1-0-6-0-1-0-00-01-0-6-0-1-0[000000]-|

B |------------------------------------------------------------------------|
F#|------------------------------------------------------------------------|
D |------------------------------------------------------------------------|
A |1-0-6-0-1-0-00-01-0-6-0-1-0-00001-0-6-0-1-0-00-01-0-6-0-1-0-------------|
E |1-0-6-0-1-0-00-01-0-6-0-1-0-00001-0-6-0-1-0-00-01-0-6-0-1-0-------------|
A |1-0-6-0-1-0-00-01-0-6-0-1-0-00001-0-6-0-1-0-00-01-0-6-0-1-0-------------|

B |------------------------------------------------------------------------|
F#|------------------------------------------------------------------------|
D |------------------------------------------------------------------------|
A |------------------------------------------------------------------------|
E |2---------------5-------------------------------------------------------|
A |--------------------------------6---------------4-----------------------|

B |------------------------------------------------------------------------|
F#|------------------------------------------------------------------------|
D |------------------------------------------------------------------------|
A |------------------------------------------------------------0000--------|
E |2---------------5-------------------------------------------0000--------|
A |--------------------------------6---------------4-----------0000--------|

B |------------------------------------------------------------------------|
F#|------------------------------------------------------------------------|
D |------------------------------------------------------------------------|
A |2--2--2--2--2---5--5--5--5--5---2--2--2--2--2---5--5--5--5--5-----------|
E |2--2--2--2--2---5--5--5--5--5---2--2--2--2--2---5--5--5--5--5-----------|
A |2--2--2--2--2---5--5--5--5--5---2--2--2--2--2---5--5--5--5--5-----------|

B |------------------------------------------------------------------------|
F#|------------------------------------------------------------------------|
D |------------------------------------------------------------------------|
A |2--2--2--2--2---5--5--5--5--5---2--2--2--2--2---5-----------------------|
E |2--2--2--2--2---5--5--5--5--5---2--2--2--2--2---5-----------------------|
A |2--2--2--2--2---5--5--5--5--5---2--2--2--2--2---5-----------------------|

B |------------------------------------------------------------------------|
F#|------------------------------------------------------------------------|
D |------------------------------------------------------------------------|
A |1-0-6-0-1-0-00-01-0-6-0-1-0-00001-0-6-0-1-0-00-01-0-6-0-1-0-------------|
E |1-0-6-0-1-0-00-01-0-6-0-1-0-00001-0-6-0-1-0-00-01-0-6-0-1-0-------------|
A |1-0-6-0-1-0-00-01-0-6-0-1-0-00001-0-6-0-1-0-00-01-0-6-0-1-0-------------|
Related for No Name tab