Song name
# A B C D E F G H I J K L M N O P Q R S T U V W X Y Z

Motograter - Fight tab

Fight from Motograter
Tuning: A-E-A-D-F#-B or 7 string AEADGBe
(Motograter DOES use 6 strings)

Intro/Verse
--------|
--------|
--------|
-5-55-6-|
-5-55-6-|
-5-55-6-|
Play the above 3 times then
--------|
--------|
--------|
-5-55-4-|
-5-55-4-|
-5-55-4-|

Chorus(every 2nd time through this riff, PM it all)
-----------------|
-----------------|
-----------------|
-3-3-3-3-3-3-3-3-|
-3-3-3-3-3-3-3-3-|
-3-3-3-3-3-3-3-3-|

Pre-Interlude Fill(that's a slidedown, not a pickscrape)
-----------|
-----------|
-----------|
-5-55-6-//-|
-5-55-6-//-|
-5-55-6-//-|

Outro(listen well for this timing)
------------------|
------------------|
------------------|
-3-----3-----3----|
-3-----3-----3----|
-3333333333333333-
 ................
Tap to rate this tab
 
# A B C D E F G H I J K L M N O P Q R S T U V W X Y Z