Song name
# A B C D E F G H I J K L M N O P Q R S T U V W X Y Z

Motograter - Get Back tab

Get Back from Motograter
Tuning: A-E-A-D-F#-B or 7 string AEADGBe
(Motograter DOES play 6 string)

Intro/pre-chorus/outro
-------------------------------------|
-------------------------------------|
--------------7777--------------8888-|
-0000---------xxxx-0000---------xxxx-|
-0000-0-0-0-0-5555-0000-0-0-0-0-6666-|
-0000-0-0-0-0------0000-0-0-0-0------|

Verse
--------|
--------|
-7~--88-|
-x---xx-
-5~--66-|
-0~-----|

Chorus
-----------------------------------|
-----------------------------------|
-7-77-77-77-7777-------------------|
-5-55-55-55-5555-0-0-00-0-0-0-0000-|
-3-33-33-33-3333-0-0-00-0-0-0-0000-|
-----------------0-0-00-0-0-0-0000-|

Post-Chorus/Interlude
-----------------------------------------|
-----------------------------------------|
-------777-------888-------777-------666-|
-----x-xxx-----x-xxx-----x-xxx-----x-xxx-|
-0-0-x-555-0-0-x-666-0-0-x-555-0-0-x-444-|
-0-0-------0-0-------0-0-------0-0-------|
Tap to rate this tab
 
# A B C D E F G H I J K L M N O P Q R S T U V W X Y Z