Song name
# A B C D E F G H I J K L M N O P Q R S T U V W X Y Z

Motograter - Mutiny tab

Mutiny from Motograter
Tuning: A-E-A-D-F#-B or 7 string AEADGBe
* means natural harmonic.
b mean bend.

Intro
-----------------|
-----------------|
-----------------|
-87-87-87-87-87--|
-87-87-87-87-87--|
-87-87-87-87-87--|

Intro 2
-----------------------------------------------------------|
-----------------------------------------------------------|
-------------9b------------10b-------------12b-------------|
-87-87-87-87----87-87-87-87----87-87-87-87-----87-87-87-87-|
-87-87-87-87----87-87-87-87----87-87-87-87-----87-87-87-87-|
-87-87-87-87----87-87-87-87----87-87-87-87-----87-87-87-87-|

Verse- use wah, listen for this timing carefully.
---------------------------|
---------------------------|
-99-xx-99-xx-99-xx-99-xx-7-|
-xx-xx-xx-xx-xx-xx-xx-xx-x-|
-77-xx-77-xx-77-xx-77-xx-5-|
---------------------------|

Chorus 1 is the Intro

Chorus 2(play this riff x8, and let notes ring more then intro)
----------------|
----------------|
----------------|
-87-87-87-87-87-|
-87-87-87-87-87-|
-87-87-87-87-87-|

Verse 2 is like verse one, but after the second time the riff if played, add this fill:
------------------------|
------------------------|
-xx-xx-xx-xx-xx-xx-5555-|
-xx-xx-xx-xx-xx-xx------|
------------------------|
------------------------|
                   ****
Outro is intro 2 with a slide down at the end.
Tap to rate this tab
# A B C D E F G H I J K L M N O P Q R S T U V W X Y Z