Motor Ace - Keeping Secrets chords

Highlighted       Show chord diagrams
Motor Ace - Keeping Secrets
Album - (2002) Shoot This


Tabbed by: Sound Relief			
Email: it-control@hotmail.com
Tuning - Standard - Capo 1

CAPO 1.

Chords Used 

E|-------------------------------------x----------0--------------|
B|---0--------0--------0--------0------3----2-----3---------3----|
G|---2--------2--------2--------2------0----2-----2---------2----|
D|---0--------2--------0--------0------0----2-----0---------0----|
A|---2--------0--------2--------4------2----0-----x---------2----|
E|---3--------x--------x--------x------3----x-----2---------0----|
   Gadd9    Asus2    E7sus4   Aadd9    G    A   Dsus2/F#   Dsus2/B   

E|---2--------0--------------------------------------------------|
B|---3--------3--------------------------------------------------|
G|---2--------2--------------------------------------------------|
D|---0--------2--------------------------------------------------|
A|---x--------0--------------------------------------------------|
E|---x--------x--------------------------------------------------|
     D      Asus4 


INTRO

Gadd9    Asus2    E7sus4   Aadd9


VERSE

Gadd9                 Asus2
Took all week for the feelings to come.

E7sus4              Aadd9
Dry your eyes we're staring at the sun.

Gadd9                 Asus2
Wanna call I've got nothing to say.

Gadd9                 Asus2
Want it all got a line and the nerve to stay

Pre-Chorus

  G (hammer on A string on tempo)    A                  Asus4
  You're keeping secrets .... there's only one i need to find


Chorus


         D          G       A
Shaking myself from the hum of the morning

                Dsus2/F#   G        A
Saving it all        for the rest of the night

   Dsus2/B                Asus4     G   Dsus2/F#    
Losing myself    to the drug of the city lights

G  (hammer on A sting on tempo)         A        Asus4
You're keeping secrets,     theres only one I need to find.


Said it all now theres no mystery
Talk so much I force myself to breathe
Underhand but it all went to plan
Sold my soul to an understanding man

You're keeping secrets,  Theres only one I need to find...

Shaking myself from the hum of the morning
Saving it all for the rest of the night
Losing myself to the drug of the city lights
You're keeping secrets,
theres only one I need to find...



A                 D sus2 / A
Stay up all night for the kids,

                   G             Dsus2/B       Asus4
its getting better.

A                 D sus2 / A
Stay up all night for the kids,

                   G             Dsus2/B       Asus4
its getting better...


You're keeping secrets
theres only one i need to find...

Shaking myself from the hum of the morning
Saving it all for the rest of the night
Losing myself to the drug of the city lights
You're keeping secrets,
theres only one I need to find...


INTRO CHORDS OUTRO X 8





Please send and notations to it-control@hotmail.com. wwweeeeeeeee
Tap to rate this tab
 
# A B C D E F G H I J K L M N O P Q R S T U V W X Y Z