Song name
# A B C D E F G H I J K L M N O P Q R S T U V W X Y Z

Motorama - Theres No Hunters Here tab

Motorama - There's No Hunters Here
From the album Motorama (2010).

Tabbed by Isaac Murguia, July 2012.
YouTube: Goadiroth

INTRO:
                     [x2]
e|-----------|-------------------|-----------------------|      |-------|
B|-----------|-------------------|-----------------------|      |-------|
G|-----------|----------9--------|----------9--12--9-----|      |-------|
D|-10--12-10-|-12-10-12----12-10-|-12-10-12-----------12-|      |-10----|
A|-----------|-------------------|-----------------------|      |-------|
E|-----------|-------------------|-----------------------| [x6] |-------|

VERSE A:
e|-----------------------------|
B|-----------------------------|
G|-----------------------------|
D|--------9---7--------9---7---|
A|-(10)---7---5---10---7---5---|
E|-(8)------------8------------|

VERSE B:
      [x4]        [x4]
e|-------------|---------|---------------------|--------------------------------|
B|-------------|---------|---------------------|--------------------------------|
G|-------------|---------|----------------9----|-------9---------------10-------|
D|-10-10-10-10-|-9-9-9-9-|-9-10-12-10--10---10-|-10-10---10-10---10-10----10-10-|
A|-------------|---------|---------------------|--------------------------------|
E|-------------|---------|---------------------|--------------------------------|

CHORUS:
e|-----------------8--7----------|
B|----------8-8-10------10-8---8-|
G|-------9-----------------------|
D|-10-10-------------------------|
A|-------------------------------|
E|-------------------------------| [x4]

Repeat INTRO [x2]

VERSE A VARIATION:
e|-------------------------------|
B|-------------------------------|
G|-------------------------------|
D|--------9---7--------9--9\-7---|
A|-(10)---7---5---10---7--7\-5---|
E|-(8)------------8--------------|

Repeat VERSE B
Repeat CHORUS [x4]

CHORUS VARIATION:
e|-----------------8--7--------10-|-----------------8--7----------|
B|----------8-8-10------10-8---8--|----------8-8-10------10-8---8-|
G|-------9------------------------|-------9-----------------------|
D|-10-10--------------------------|-10-10-------------------------|
A|--------------------------------|-------------------------------|
E|--------------------------------|-------------------------------| [x2]

BRIDGE: [x2]
                        1.       2.
e|---------------------|--------|----------------|
B|---8---8----88---8---|--------|----10-10----10-|
G|-9---9----7----7---7-|-9----7-|-9--------9-----|
D|---------------------|--------|----------------|
A|---------------------|--------|----------------|
E|---------------------|--------|----------------|

Repeat CHORUS

OUTRO CHORUS:
e|-----------------8--7--------10-|-----------------8--7----------|
B|----------8-8-10------10-8------|----------8-8-10------10-8---8-|
G|-------9------------------------|-------9-----------------------|
D|-10-10--------------------------|-10-10-------------------------|
A|--------------------------------|-------------------------------|
E|--------------------------------|-------------------------------|

e|-----------------8--7--------10-|-----------------8--7----------|
B|----------8-8-10------10-8---8--|----------8-8-10------10-8---8-|
G|-------9------------------------|-------9-----------------------|
D|-10-10--------------------------|-10-10-------------------------|
A|--------------------------------|-------------------------------|
E|--------------------------------|-------------------------------| end.
Tap to rate this tab
# A B C D E F G H I J K L M N O P Q R S T U V W X Y Z