Song name
# A B C D E F G H I J K L M N O P Q R S T U V W X Y Z

Motorhead - Night Side tab

ARTIST:MOTORHEAD.
SONG:NIGHT SIDE.
ALBUM:SANKE BITE LOVE.
TUNING:HALF STEP 1/2.
TAB:LOPEZ017.

Tune down to Eb (down half a step)

Verse w/wah
e|---------------------------------|--------------------------------------|
B|---------------------------------|--------------------------------------|
G|---------------------------------|--------------------------------------|
D|---------------------------------|--------------------------------------|
A|-2-22-2225-55-5559-99-9997-77-75-|-2-22-2225-55-5559-99-99912-1212-1212-|
E|-0-00-0003-33-3337-77-7775-55-53-|-0-00-0003-33-3337-77-77710-1010-1010-|

e|---------------------------------|---------------------------------|
B|---------------------------------|---------------------------------|
G|---------------------------------|---------------------------------|
D|---------------------------------|---------------------------------|
A|-2-22-2225-55-5559-99-9997-77-75-|-2-22-2225-55-5559-99-9999-9-7-5-|
E|-0-00-0003-33-3337-77-7775-55-53-|-0-00-0003-33-3337-77-7777-7-5-3-|

Chorus
e|---------------------------------------------------------------------------|
B|---------------------------------------------------------------------------|
G|----------------------------------------------------------8--------------8-|
D|-------------------10---------------------10-88-8-8-8-8-8-6-88-8-8-8-8-8-6-|
A|-10-10-10-10-10-10-8--1010-10-10-10-10-10-8--66-6-6-6-6-6---66-6-6-6-6-6---|
E|-8--8--8--8--8--8-----8-8--8--8--8--8--8-----------------------------------|

e|---------------------------------------------------------------------------|
B|---------------------------------------------------------------------------|
G|----------------------------------------------------------8--------------7-|
D|-------------------10---------------------10-88-8-8-8-8-8-6-77-7-7-7-7-7-5-|
A|-10-10-10-10-10-10-8--1010-10-10-10-10-10-8--66-6-6-6-6-6---55-5-5-5-5-5---|
E|-8--8--8--8--8--8-----8-8--8--8--8--8--8-----------------------------------|

Bridge (on bass) x2
G|------------------------------|
D|------------------------------|
A|------------------------------|
E|-0000--00000----0000--00000---|

Solo Backing - I think this is the verse riff on the bass only.
Tap to rate this tab
# A B C D E F G H I J K L M N O P Q R S T U V W X Y Z