Song name
# A B C D E F G H I J K L M N O P Q R S T U V W X Y Z

Motorhead - Terminal Show tab

Artist:Motorhead.
Song:Terminal SHow.
Album:Inferno.
Tuning:C#,G#,C#,F#,A#,D#.
Tab:Lopez017.

'NOTE: This tab is only for the rythim guitar not for lead there for it does not contain the solo"

Tempo 130                                 

      S         S S S S S  E  S  S S S S S  E   
D#||-------------------------------------------|
A#||-------------------------------------------|
F#||-------------------------------------------|
C#||----------------------11---------------10--|
G#||----------------------11---------------10--|
C#||--6S--------8-8-8-8-8-11--6S-8-8-8-8-8-10--|


  S  S S S S S  E  S S  E  S S  E     S  S S S S S  E  S  S S S S S  E   
-----------------------------------|------------------------------------|
-----------------------------------|------------------------------------|
-----------------------------------|------------------------------------|
---------------11------10------11--|---------------11---------------10--|
---------------11------10------11--|---------------11---------------10--|
--6S-8-8-8-8-8-11--8-8-10--8-8-11--|--6S-8-8-8-8-8-11--6S-8-8-8-8-8-10--|


  S  S S S S S  E  S S  E  S S  E     S  S S S S S  E  S  S S S S S  E   
-----------------------------------|------------------------------------|
-----------------------------------|------------------------------------|
-----------------------------------|------------------------------------|
---------------11------10------11--|---------------11---------------10--|
---------------11------10------11--|---------------11---------------10--|
--6S-8-8-8-8-8-11--8-8-10--8-8-11--|--6S-8-8-8-8-8-11--6S-8-8-8-8-8-10--|


  S  S S S S S  E  S S  E  S S  E     S  S S S S S  E  S  S S S S S  E   
-----------------------------------|------------------------------------|
-----------------------------------|------------------------------------|
-----------------------------------|------------------------------------|
---------------11------10------11--|---------------11---------------10--|
---------------11------10------11--|---------------11---------------10--|
--6S-8-8-8-8-8-11--8-8-10--8-8-11--|--6S-8-8-8-8-8-11--6S-8-8-8-8-8-10--|


                                      Tempo 140                    
  S  S S S S S  E  S S  E  S S  E     E.        E.  E  E.  E.  E   
-----------------------------------|------------------------------|
-----------------------------------|------------------------------|
-----------------------------------|------------------------------|
---------------11------10------11--|--2---------2---0--2---2---0--|
---------------11------10------11--|--2---------2---0--2---2---0--|
--6S-8-8-8-8-8-11--8-8-10--8-8-11--|--2---------2---0--2---2---0--|


  E.  E.  E  E  E  E  E     E.  E.  E  E.  E.  E     E.  E.  E  H         
-------------------------|------------------------|----------------------|
-------------------------|------------------------|----------------------|
-------------------------|------------------------|----------------------|
--2---2---0--3--0--2--3--|--2---2---0--2---2---0--|--2---2---0--L--------|
--2---2---0--3--0--2--3--|--2---2---0--2---2---0--|--2---2---0--L--------|
--2---2---0--3--0--2--3--|--2---2---0--2---2---0--|--2---2---0--L--------|


  E.  E.  E  E.  E.  E     E.  E.  E  E  E  E  E   
------------------------|-------------------------|
------------------------|-------------------------|
------------------------|-------------------------|
--2---2---0--2---2---0--|--2---2---0--3--0--2--3--|
--2---2---0--2---2---0--|--2---2---0--3--0--2--3--|
--2---2---0--2---2---0--|--2---2---0--3--0--2--3--|


  E.  E.  E  E.  E.  E     E.  E.  E  H           E.  E.  E  E.  E.  E   
------------------------|----------------------|------------------------|
------------------------|----------------------|------------------------|
------------------------|----------------------|------------------------|
--2---2---0--2---2---0--|--2---2---0--L--------|--2---2---0--2---2---0--|
--2---2---0--2---2---0--|--2---2---0--L--------|--2---2---0--2---2---0--|
--2---2---0--2---2---0--|--2---2---0--L--------|--2---2---0--2---2---0--|


  E.  E.  E  E  E  E  E     E.  E.  E  E.  E.  E     E.  E.  E  H         
-------------------------|------------------------|----------------------|
-------------------------|------------------------|----------------------|
-------------------------|------------------------|----------------------|
--2---2---0--3--0--2--3--|--2---2---0--2---2---0--|--2---2---0--L--------|
--2---2---0--3--0--2--3--|--2---2---0--2---2---0--|--2---2---0--L--------|
--2---2---0--3--0--2--3--|--2---2---0--2---2---0--|--2---2---0--L--------|


  E.  E.  E  E.  E.  E     E.  E.  E  E  E  E  E   
------------------------|-------------------------|
------------------------|-------------------------|
------------------------|-------------------------|
--2---2---0--2---2---0--|--2---2---0--3--0--2--3--|
--2---2---0--2---2---0--|--2---2---0--3--0--2--3--|
--2---2---0--2---2---0--|--2---2---0--3--0--2--3--|


  E.  E.  E  E.  E.  E     E.  E.  E  H           W                 
------------------------|----------------------|-------------------|
------------------------|----------------------|-------------------|
------------------------|----------------------|-------------------|
--2---2---0--2---2---0--|--2---2---0--L--------|--5----------------|
--2---2---0--2---2---0--|--2---2---0--L--------|--5----------------|
--2---2---0--2---2---0--|--2---2---0--L--------|--5----------------|


  H        H           E  S E.  E  E  S E.  E     E  S E.  E  E  S E.  E   
--------------------|--------------------------|--------------------------|
--------------------|--------------------------|--------------------------|
-----------3--------|--------------------------|--------------------------|
--3--------3--------|--------------------------|--------------------------|
--3--------1--------|--5--5-5---3--5--5-5---3--|--3--3-3---1--3--3-3---1--|
--3-----------------|--------------------------|--------------------------|


  E.  E.  E    E.  Q    S    E.  E.  E   E  E  Q     
--------------------------|-------------------------|
--------------------------|-------------------------|
--------------------------|--------------------5----|
--5---8---5S--10---8----L-|--5---8---5S--3--3--5----|
--5---8---5S--10---8----L-|--5---8---5S--3--3--3----|
--5---8---5S--10---8----L-|--5---8---5S--3--3-------|


  E.  E.  E    E.  Q    S    E.  E.  E  H         
--------------------------|----------------------|
--------------------------|----------------------|
--------------------------|----------------------|
--5---8---5S--10---8----L-|--3---3---3--3--------|
--5---8---5S--10---8----L-|--3---3---3--3--------|
--5---8---5S--10---8----L-|--3---3---3--3--------|


  E.  E.  E    E.  Q    S    E.  E.  E   E  E  Q     
--------------------------|-------------------------|
--------------------------|-------------------------|
--------------------------|--------------------5----|
--5---8---5S--10---8----L-|--5---8---5S--3--3--5----|
--5---8---5S--10---8----L-|--5---8---5S--3--3--3----|
--5---8---5S--10---8----L-|--5---8---5S--3--3-------|


  E.  E.  E    E.  Q    S    E.  E.  E  H         
--------------------------|----------------------|
--------------------------|----------------------|
--------------------------|----------------------|
--5---8---5S--10---8----L-|--3---3---3--3--------|
--5---8---5S--10---8----L-|--3---3---3--3--------|
--5---8---5S--10---8----L-|--3---3---3--3--------|


  Tempo 130                                 
  S         S S S S S  E  S  S S S S S  E   
-------------------------------------------|
-------------------------------------------|
-------------------------------------------|
----------------------11---------------10--|
----------------------11---------------10--|
--6S--------8-8-8-8-8-11--6S-8-8-8-8-8-10--|


  S  S S S S S  E  S S  E  S S  E     S  S S S S S  E  S  S S S S S  E   
-----------------------------------|------------------------------------|
-----------------------------------|------------------------------------|
-----------------------------------|------------------------------------|
---------------11------10------11--|---------------11---------------10--|
---------------11------10------11--|---------------11---------------10--|
--6S-8-8-8-8-8-11--8-8-10--8-8-11--|--6S-8-8-8-8-8-11--6S-8-8-8-8-8-10--|


                                      Tempo 140                    
  S  S S S S S  E  S S  E  S S  E     E.        E.  E  E.  E.  E   
-----------------------------------|------------------------------|
-----------------------------------|------------------------------|
-----------------------------------|------------------------------|
---------------11------10------11--|--2---------2---0--2---2---0--|
---------------11------10------11--|--2---------2---0--2---2---0--|
--6S-8-8-8-8-8-11--8-8-10--8-8-11--|--2---------2---0--2---2---0--|


  E.  E.  E  E  E  E  E     E.  E.  E  E.  E.  E     E.  E.  E  H         
-------------------------|------------------------|----------------------|
-------------------------|------------------------|----------------------|
-------------------------|------------------------|----------------------|
--2---2---0--3--0--2--3--|--2---2---0--2---2---0--|--2---2---0--L--------|
--2---2---0--3--0--2--3--|--2---2---0--2---2---0--|--2---2---0--L--------|
--2---2---0--3--0--2--3--|--2---2---0--2---2---0--|--2---2---0--L--------|


  E.  E.  E  E.  E.  E     E.  E.  E  E  E  E  E   
------------------------|-------------------------|
------------------------|-------------------------|
------------------------|-------------------------|
--2---2---0--2---2---0--|--2---2---0--3--0--2--3--|
--2---2---0--2---2---0--|--2---2---0--3--0--2--3--|
--2---2---0--2---2---0--|--2---2---0--3--0--2--3--|


  E.  E.  E  E.  E.  E     E.  E.  E  H           E.  E.  E  E.  E.  E   
------------------------|----------------------|------------------------|
------------------------|----------------------|------------------------|
------------------------|----------------------|------------------------|
--2---2---0--2---2---0--|--2---2---0--L--------|--2---2---0--2---2---0--|
--2---2---0--2---2---0--|--2---2---0--L--------|--2---2---0--2---2---0--|
--2---2---0--2---2---0--|--2---2---0--L--------|--2---2---0--2---2---0--|


  E.  E.  E  E  E  E  E     E.  E.  E  E.  E.  E     E.  E.  E  H         
-------------------------|------------------------|----------------------|
-------------------------|------------------------|----------------------|
-------------------------|------------------------|----------------------|
--2---2---0--3--0--2--3--|--2---2---0--2---2---0--|--2---2---0--L--------|
--2---2---0--3--0--2--3--|--2---2---0--2---2---0--|--2---2---0--L--------|
--2---2---0--3--0--2--3--|--2---2---0--2---2---0--|--2---2---0--L--------|


  E.  E.  E  E.  E.  E     E.  E.  E  E  E  E  E   
------------------------|-------------------------|
------------------------|-------------------------|
------------------------|-------------------------|
--2---2---0--2---2---0--|--2---2---0--3--0--2--3--|
--2---2---0--2---2---0--|--2---2---0--3--0--2--3--|
--2---2---0--2---2---0--|--2---2---0--3--0--2--3--|


  E.  E.  E  E.  E.  E     E.  E.  E  H           W                 
------------------------|----------------------|-------------------|
------------------------|----------------------|-------------------|
------------------------|----------------------|-------------------|
--2---2---0--2---2---0--|--2---2---0--L--------|--5----------------|
--2---2---0--2---2---0--|--2---2---0--L--------|--5----------------|
--2---2---0--2---2---0--|--2---2---0--L--------|--5----------------|


  H        H           E  S E.  E  E  S E.  E     E  S E.  E  E  S E.  E   
--------------------|--------------------------|--------------------------|
--------------------|--------------------------|--------------------------|
-----------3--------|--------------------------|--------------------------|
--3--------3--------|--------------------------|--------------------------|
--3--------1--------|--5--5-5---3--5--5-5---3--|--3--3-3---1--3--3-3---1--|
--3-----------------|--------------------------|--------------------------|


  E.  E.  E    E.  Q    S    E.  E.  E   E  E  Q     
--------------------------|-------------------------|
--------------------------|-------------------------|
--------------------------|--------------------5----|
--5---8---5S--10---8----L-|--5---8---5S--3--3--5----|
--5---8---5S--10---8----L-|--5---8---5S--3--3--3----|
--5---8---5S--10---8----L-|--5---8---5S--3--3-------|


  E.  E.  E    E.  Q    S    E.  E.  E  H         
--------------------------|----------------------|
--------------------------|----------------------|
--------------------------|----------------------|
--5---8---5S--10---8----L-|--3---3---3--3--------|
--5---8---5S--10---8----L-|--3---3---3--3--------|
--5---8---5S--10---8----L-|--3---3---3--3--------|


  E.  E.  E    E.  Q    S    E.  E.  E   E  E  Q     
--------------------------|-------------------------|
--------------------------|-------------------------|
--------------------------|--------------------5----|
--5---8---5S--10---8----L-|--5---8---5S--3--3--5----|
--5---8---5S--10---8----L-|--5---8---5S--3--3--3----|
--5---8---5S--10---8----L-|--5---8---5S--3--3-------|


  E.  E.  E    E.  Q    S    E.  E.  E  H         
--------------------------|----------------------|
--------------------------|----------------------|
--------------------------|----------------------|
--5---8---5S--10---8----L-|--3---3---3--3--------|
--5---8---5S--10---8----L-|--3---3---3--3--------|
--5---8---5S--10---8----L-|--3---3---3--3--------|


  E  S E  S Q    Q    E      E   S  E   S  Q     Q     E   
-------------------------|--------------------------------|
-------------------------|--------------------------------|
--7--7-7--7-7----7----7--|--13--13-13--13-13----13----13--|
--7--7-7--7-7----7----7--|--13--13-13--13-13----13----13--|
--5--5-5--5-5----5----5--|--11--11-11--11-11----11----11--|
-------------------------|--------------------------------|


  E  S E  S Q    Q    E     E  S E  S Q    Q    E   
-------------------------|-------------------------|
-------------------------|-------------------------|
-------------------------|-------------------------|
--9--9-9--9-9----9----9--|--4--4-4--4-4----4----4--|
--9--9-9--9-9----9----9--|--4--4-4--4-4----4----4--|
--9--9-9--9-9----9----9--|--4--4-4--4-4----4----4--|


  E  S E  S Q    Q    E      E   S  E   S  Q     Q     E   
-------------------------|--------------------------------|
-------------------------|--------------------------------|
--7--7-7--7-7----7----7--|--13--13-13--13-13----13----13--|
--7--7-7--7-7----7----7--|--13--13-13--13-13----13----13--|
--5--5-5--5-5----5----5--|--11--11-11--11-11----11----11--|
-------------------------|--------------------------------|


   E   S  E   S  Q     Q     E     E  S E  S Q    Q    E   
--------------------------------|-------------------------|
--------------------------------|-------------------------|
--16--16-16--16-16----16----16--|-------------------------|
--16--16-16--16-16----16----16--|--4--4-4--4-4----4----4--|
--14--14-14--14-14----14----14--|--4--4-4--4-4----4----4--|
--------------------------------|--4--4-4--4-4----4----4--|


  E  S E  S Q    Q    E     E  S E  S Q    Q    E   
-------------------------|-------------------------|
-------------------------|-------------------------|
-------------------------|-------------------------|
--0--0-0--0-0----0----0--|--6--6-6--6-6----6----6--|
--0--0-0--0-0----0----0--|--6--6-6--6-6----6----6--|
--0--0-0--0-0----0----0--|--6--6-6--6-6----6----6--|


  E  S E  S Q    Q    E     E  S E  S Q    Q    E   
-------------------------|-------------------------|
-------------------------|-------------------------|
-------------------------|-------------------------|
--0--0-0--0-0----0----0--|--5--5-5--5-3----3----3--|
--0--0-0--0-0----0----0--|--5--5-5--5-3----3----3--|
--0--0-0--0-0----0----0--|--5--5-5--5-3----3----3--|


  E  S E  S Q    Q    E     E  S E  S Q    Q    E   
-------------------------|-------------------------|
-------------------------|-------------------------|
-------------------------|-------------------------|
--0--0-0--0-0----0----0--|--6--6-6--6-6----6----6--|
--0--0-0--0-0----0----0--|--6--6-6--6-6----6----6--|
--0--0-0--0-0----0----0--|--6--6-6--6-6----6----6--|


  E  S E  S Q    Q    E     E  S E  S Q    Q    E   
-------------------------|-------------------------|
-------------------------|-------------------------|
-------------------------|-------------------------|
--0--0-0--0-0----0----0--|--5--5-5--5-3----3----3--|
--0--0-0--0-0----0----0--|--5--5-5--5-3----3----3--|
--0--0-0--0-0----0----0--|--5--5-5--5-3----3----3--|


  Tempo 130                                 
  S         S S S S S  E  S  S S S S S  E   
-------------------------------------------|
-------------------------------------------|
-------------------------------------------|
----------------------11---------------10--|
----------------------11---------------10--|
--6S--------8-8-8-8-8-11--6S-8-8-8-8-8-10--|


  S  S S S S S  E  S S  E  S S  E     S  S S S S S  E  S  S S S S S  E   
-----------------------------------|------------------------------------|
-----------------------------------|------------------------------------|
-----------------------------------|------------------------------------|
---------------11------10------11--|---------------11---------------10--|
---------------11------10------11--|---------------11---------------10--|
--6S-8-8-8-8-8-11--8-8-10--8-8-11--|--6S-8-8-8-8-8-11--6S-8-8-8-8-8-10--|


                                      Tempo 140                    
  S  S S S S S  E  S S  E  S S  E     E.        E.  E  E.  E.  E   
-----------------------------------|------------------------------|
-----------------------------------|------------------------------|
-----------------------------------|------------------------------|
---------------11------10------11--|--2---------2---0--2---2---0--|
---------------11------10------11--|--2---------2---0--2---2---0--|
--6S-8-8-8-8-8-11--8-8-10--8-8-11--|--2---------2---0--2---2---0--|


  E.  E.  E  E  E  E  E     E.  E.  E  E.  E.  E     E.  E.  E  H         
-------------------------|------------------------|----------------------|
-------------------------|------------------------|----------------------|
-------------------------|------------------------|----------------------|
--2---2---0--3--0--2--3--|--2---2---0--2---2---0--|--2---2---0--L--------|
--2---2---0--3--0--2--3--|--2---2---0--2---2---0--|--2---2---0--L--------|
--2---2---0--3--0--2--3--|--2---2---0--2---2---0--|--2---2---0--L--------|


  E.  E.  E  E.  E.  E     E.  E.  E  E  E  E  E   
------------------------|-------------------------|
------------------------|-------------------------|
------------------------|-------------------------|
--2---2---0--2---2---0--|--2---2---0--3--0--2--3--|
--2---2---0--2---2---0--|--2---2---0--3--0--2--3--|
--2---2---0--2---2---0--|--2---2---0--3--0--2--3--|


  E.  E.  E  E.  E.  E     E.  E.  E  H           E.  E.  E  E.  E.  E   
------------------------|----------------------|------------------------|
------------------------|----------------------|------------------------|
------------------------|----------------------|------------------------|
--2---2---0--2---2---0--|--2---2---0--L--------|--2---2---0--2---2---0--|
--2---2---0--2---2---0--|--2---2---0--L--------|--2---2---0--2---2---0--|
--2---2---0--2---2---0--|--2---2---0--L--------|--2---2---0--2---2---0--|


  E.  E.  E  E  E  E  E     E.  E.  E  E.  E.  E     E.  E.  E  H         
-------------------------|------------------------|----------------------|
-------------------------|------------------------|----------------------|
-------------------------|------------------------|----------------------|
--2---2---0--3--0--2--3--|--2---2---0--2---2---0--|--2---2---0--L--------|
--2---2---0--3--0--2--3--|--2---2---0--2---2---0--|--2---2---0--L--------|
--2---2---0--3--0--2--3--|--2---2---0--2---2---0--|--2---2---0--L--------|


  E.  E.  E  E.  E.  E     E.  E.  E  E  E  E  E   
------------------------|-------------------------|
------------------------|-------------------------|
------------------------|-------------------------|
--2---2---0--2---2---0--|--2---2---0--3--0--2--3--|
--2---2---0--2---2---0--|--2---2---0--3--0--2--3--|
--2---2---0--2---2---0--|--2---2---0--3--0--2--3--|


  E.  E.  E  E.  E.  E     E.  E.  E  H           W                 
------------------------|----------------------|-------------------|
------------------------|----------------------|-------------------|
------------------------|----------------------|-------------------|
--2---2---0--2---2---0--|--2---2---0--L--------|--5----------------|
--2---2---0--2---2---0--|--2---2---0--L--------|--5----------------|
--2---2---0--2---2---0--|--2---2---0--L--------|--5----------------|


  H        H           E  S E.  E  E  S E.  E     E  S E.  E  E  S E.  E   
--------------------|--------------------------|--------------------------|
--------------------|--------------------------|--------------------------|
-----------3--------|--------------------------|--------------------------|
--3--------3--------|--------------------------|--------------------------|
--3--------1--------|--5--5-5---3--5--5-5---3--|--3--3-3---1--3--3-3---1--|
--3-----------------|--------------------------|--------------------------|


  E.  E.  E    E.  Q    S    E.  E.  E   E  E  Q     
--------------------------|-------------------------|
--------------------------|-------------------------|
--------------------------|--------------------5----|
--5---8---5S--10---8----L-|--5---8---5S--3--3--5----|
--5---8---5S--10---8----L-|--5---8---5S--3--3--3----|
--5---8---5S--10---8----L-|--5---8---5S--3--3-------|


  E.  E.  E    E.  Q    S    E.  E.  E  H         
--------------------------|----------------------|
--------------------------|----------------------|
--------------------------|----------------------|
--5---8---5S--10---8----L-|--3---3---3--3--------|
--5---8---5S--10---8----L-|--3---3---3--3--------|
--5---8---5S--10---8----L-|--3---3---3--3--------|


  E.  E.  E    E.  Q    S    E.  E.  E   E  E  Q     
--------------------------|-------------------------|
--------------------------|-------------------------|
--------------------------|--------------------5----|
--5---8---5S--10---8----L-|--5---8---5S--3--3--5----|
--5---8---5S--10---8----L-|--5---8---5S--3--3--3----|
--5---8---5S--10---8----L-|--5---8---5S--3--3-------|


  E.  E.  E    E.  Q    S    E.  E.  E  H         
--------------------------|----------------------|
--------------------------|----------------------|
--------------------------|----------------------|
--5---8---5S--10---8----L-|--3---3---3--3--------|
--5---8---5S--10---8----L-|--3---3---3--3--------|
--5---8---5S--10---8----L-|--3---3---3--3--------|


  E.   E.  E    E.   Q    S    E.   E.  E   E  E  Q     
----------------------------|--------------------------|
----------------------------|--------------------------|
----------------------------|---------------------7----|
--7---10---7S--12---10----L-|--7---10---7S--5--5--7----|
--7---10---7S--12---10----L-|--7---10---7S--5--5--5----|
--7---10---7S--12---10----L-|--7---10---7S--5--5-------|


  E.   E.  E    E.   Q    S    E.  E.  E  H         
----------------------------|----------------------|
----------------------------|----------------------|
----------------------------|----------------------|
--7---10---7S--12---10----L-|--5---5---5--5--------|
--7---10---7S--12---10----L-|--5---5---5--5--------|
--7---10---7S--12---10----L-|--5---5---5--5--------|


  E.   E.  E    E.   Q    S    E.   E.  E   E  E  Q     
----------------------------|--------------------------|
----------------------------|--------------------------|
----------------------------|---------------------7----|
--7---10---7S--12---10----L-|--7---10---7S--5--5--7----|
--7---10---7S--12---10----L-|--7---10---7S--5--5--5----|
--7---10---7S--12---10----L-|--7---10---7S--5--5-------|


  E.   E.  E    E.   Q    S    E.  E.  E  H         
----------------------------|----------------------|
----------------------------|----------------------|
----------------------------|----------------------|
--7---10---7S--12---10----L-|--5---5---5--5--------|
--7---10---7S--12---10----L-|--5---5---5--5--------|
--7---10---7S--12---10----L-|--5---5---5--5--------|


  Tempo 130                                 
  S         S S S S S  E  S  S S S S S  E   
-------------------------------------------|
-------------------------------------------|
-------------------------------------------|
----------------------11---------------10--|
----------------------11---------------10--|
--6S--------8-8-8-8-8-11--6S-8-8-8-8-8-10--|


  S  S S S S S  E  S S  E  S S  E       Q      
------------------------------------|--------||
------------------------------------|--------||
------------------------------------|--------||
---------------11------10------11\--|---L----||
---------------11------10------11\--|---L----||
--6S-8-8-8-8-8-11--8-8-10--8-8-11\--|---L----||
Tap to rate this tab
# A B C D E F G H I J K L M N O P Q R S T U V W X Y Z