Song name
# A B C D E F G H I J K L M N O P Q R S T U V W X Y Z

Motorhead - Born To Raise Hell tab

verse/chorus
e(--------)(---------------------------------------)
b(--------)(---------------------------------------)
g(------7-)(-----------7-------7-------7-------77--)
d(--421-7-)(-10/6-6-66-76-6-66-76-6-66-76-6-66-776-)
a(--421-5-)(-10/6-6-66-56-6-66-56-6-66-56-6-66-556-)
D(--421---)(-10/6-6-66--6-6-66--6-6-66--6-6-66---6-)

pre-chorus
e(--------------------------------------------------------)
b(---------------4-4--------------------------------------)
g(--------------------------------------------------------)
d(--111111111111-----111111111111111111111111111111111111-)
a(--111111111111-----111111111111111111111111111111111111-)
D(--111111111111-----111111111111111111111111111111111111-)

solo
e(--------------------14-13-14/13-10/9-10/11-13-14---------)
b(--7-75-5/77-7654347------------------------------7654347-)
g(--4-42-2/44-4321014------------------------------4321014-)
d(---------------------------------------------------------)
a(---------------------------------------------------------)
D(---------------------------------------------------------)

solo continued
e(--9-79-7h97h97h9-11-9-7h97h97h9-5h75h75h7-3h53h53h5-844-81044-1044-1444-)
b(------------------------------------------------------------------------)
g(------------------------------------------------------------------------)
d(------------------------------------------------------------------------)
a(------------------------------------------------------------------------)
D(------------------------------------------------------------------------)

solo continued
e(-----------------------------------------)
b(--9999-9744-744-4h74h74h74h7-6-765765765-)
g(-------------------------------432432432-)
d(-----------------------------------------)
a(-----------------------------------------)
D(-----------------------------------------)
Tap to rate this tab
# A B C D E F G H I J K L M N O P Q R S T U V W X Y Z