Song name
# A B C D E F G H I J K L M N O P Q R S T U V W X Y Z

Motorhead - Louie Louie tab

Motor Head -- Louie Louie
Tabber: Teddy

intro:
--------------|
----5h7-------|
--------------|
--------------|
--------------|
--------------|

this is the main riff. Listen to the song for timing.

1-----------------------------------------|
2-----------------------------------------|
3---------------------7-7--9-9-9------7-7-|
4--------------7-7-7--7-7--9-9-9------7-7-|
5--------------7-7-7--5-5--7-7-7------5-5-|
6--------------5-5-5----------------------|

Then there's the guitar solo. The 'v' stand for 'vibrato' and the 'b' for bend


      v       v       v       v         v       v       v       v
----|-5-----5-5-----5-5---8b--5-----5-|----------------------------------|
5--|-----8-------8-------------------|-8---5-------5---------------------|
----|---------------------------------|---------7b------7---5------------|
----|---------------------------------|-------------------------7---5----|
----|---------------------------------|----------------------------------|
----|---------------------------------|----------------------------------|

 v       v       v       v         v       v       v       v
-------------5-------------------|-----------------------------5---|
-------------5-------------------|-----------5---------5-----------|
-----5---7b------7b--7-5-7-5-----|-----5-7b----7---7b------7-------|
-7---------------------------7-5-|-7-------------------------------|
---------------------------------|---------------------------------|
---------------------------------|---------------------------------|

 v       v       v       v         v       v       v       v
-8b--5---------5-----5-----------|---------------------------------|
---------8-5---5-----5-----------|-------------5-------------------|
-------------7b--7b------7---5---|-----5---7b------7b--7-5-7-5-----|
---------------------------------|-7---------------------------7-5-|
---------------------------------|---------------------------------|
---------------------------------|---------------------------------|

 v       v       v       v         v       v       v       v
-----------------------------5---|---------------------------------|
-----------------------------5---|---------------------5-------5---|
-------------5---7---5-------7b--|---------7---5---7---------------|
-7-----7-7-----------------------|---------------------------------|
---------------------------------|---------------------------------|
---------------------------------|---------------------------------|

 v       v       v       v         v       v       v       v
-5-----5-5---5-----------5-----5-|-5---5-5---5-5---5---5---5---5---|
---------------------------------|---------------------------------|
---------------------------------|---------------------------------|
---------------------------------|---------------------------------|
---------------------------------|---------------------------------|
---------------------------------|---------------------------------|

 v       v       v       v         v       v       v       v
-8b--5---------5-----5-----------|---------------------------------|
---------8-5---5-----5-----------|-------------5-------------------|
-------------7b--7b------7---5---|-----5---7b------7b--7-5-7-5-----|
---------------------------------|-7---------------------------7-5-|
---------------------------------|---------------------------------|
---------------------------------|---------------------------------|

 v       v       v       v         v       v       v       v
-----------------------------5---|---------------------------------|
-----------------------------5---|---------------------------------|
-------------5---7---5-------7b--|---------7---5---7---5-----------|
-7-----7-7-----------------------|-------------------------7---5---|
---------------------------------|---------------------------------|
---------------------------------|---------------------------------|

 v       v       v       v         v       v       v       v
----------------------------------|-0---0---0-----------2---2-------|
---------------------7---7--------|-0---0---0-----------3---3-------|
---------------------7---7--------|-0---0---0-----------2---2-------|
7---7---7------------7---7--------|-2---2---2-----------0---0-------|
----------------------------------|-2---2---2-----------0---0-------|
----------------------------------|-0---0---0-----------------------|
Tap to rate this tab
# A B C D E F G H I J K L M N O P Q R S T U V W X Y Z