Song name
# A B C D E F G H I J K L M N O P Q R S T U V W X Y Z

Motorhead - The Game tab

#----------------------------------PLEASE NOTE---------------------------------#
#This file is the author's own work and represents their interpretation of the #
#song. You may only use this file for private study, scholarship, or research. #
#------------------------------------------------------------------------------#

THE GAME
As recorded by Motorhead
(From the 2001 Album WWF: THE MUSIC VOLUME 5)

Transcribed by Saitou Hajime
	

Words and Music by Motorhead

Gtr I (Eb Ab Db Gb Bb Eb) - 'Rhythm Guitar'
Gtr II (Eb Ab Db Gb Bb Eb) - 'Solo Guitar'
Gtr III (Eb Ab Db Gb Bb Eb) - 'Pick Slides'
Gtr IV (Eb Ab Db Gb Bb Eb) - 'Untitled'
Gtr V (Eb Ab Db Gb Bb Eb) - 'Additional Guitar'

 Intro
  Q=85
  E5
 4/4
  Gtr I
  W          H.      +S  S e   W          W
|----------|-----------------|----------|------|
|----------|-----------------|----------|------|
|----------|-----------------|----------|------|
|-2--------|-2-------(2)---2-|-2--------|-2----|
|-2--------|-2-------(2)---2-|-2--------|-2----|
|-0--------|-0-------(0)---0-|-0--------|-0----|


  S S S S E S S S S S S E S S   S S S S E S S S S  S  S  E       S  S
|-----------------------------|---------------------------------------|
|-----------------------------|---------------------------------------|
|-----------------------------|---------------------------------------|
|-2-2-2-----2-2-2-------------|-2-2-2-----2-2-2-----------------------|
|-2-2-2-----2-2-2-------------|-2-2-2-----2-2-2-----------------------|
|-0-0-0---x-0-0-0---x-x-x-x-x-|-0-0-0---x-0-0-0----x--x--x-------x--x-|
|
| Gtr II
| W                             H             E    S  S  S   S   S  S
|-----------------------------|---------------------------------------|
|-----------------------------|----------------------12------------12-|
|-----------------------------|-------------------12-12-12-(12)-12-12-|
|-----------------------------|---------------------------------------|
|-----------------------------|---------------------------------------|
|-----------------------------|---------------------------------------|


    S S    S  S E  S S S S S S E S S   S  S S S E S S S S S S   Q
|------------------------------------|---------------------------------|
|------------------------------------|---------------------------------|
|------------------------------------|---------------------------------|
|---2-2----2-------2-2-2-------------|-2--2-2-----2-2-2----------------|
|---2-2----2-------2-2-2-------------|-2--2-2-----2-2-2----------------|
|---0-0----0----x--0-0-0---x-x-x-x-x-|-0--0-0---x-0-0-0---x-x-/12\-----|
|
|   E      E    H.                     W
|------------------------------------|---------------------------------|
|------------------------------------|---------------------------------|
|-/12---/(12)------------------------|---------------------------------|
|------------------------------------|---------------------------------|
|------------------------------------|---------------------------------|
|------------------------------------|---------------------------------|
|
| Gtr IV
|   W                                  H.                       E   E
|------------------------------------|---------------------------------|
|------------------------------------|---------------------------------|
|------------------------------------|-------------------------16--16--|
|------------------------------------|---------------------------------|
|------------------------------------|---------------------------------|
|------------------------------------|---------------------------------|


   Chorus
    E5     G5 F#5E5       C5 B5   E5     G5    E5       C5 B5
      PM|          PM--|            PM|          PM--|
      E  E  E  E   S S  E  E  E     E  E  E  E   S S  E  E  E
||------------------------------|-----------------------------|
||o-----------------------------|-----------------------------|
||-------------------------5--4-|------------------------5--4-|
||----2--2--5--4---2-2--2--5--4-|---2--2--5--4---2-2--2--5--4-|
||o---2--2--5--4---2-2--2--3--2-|---2--2--5--4---2-2--2--3--2-|
||----0--0--3--2---0-0--0-------|---0--0--3--2---0-0--0-------|
|
|   Gtr IV
|     E  E  E  E   E    E  E  E     E  E  E  E   E    E  E  E
||--/19----------/19------------|-/19----------/19------------|
||o-----------------------------|-----------------------------|
||------16-16-16-------16-16-16-|-----16-16-16-------16-16-16-|
||------------------------------|-----------------------------|
||o-----------------------------|-----------------------------|
||------------------------------|-----------------------------|


  E5     G5 F#5E5       C5 B5   E5     G5 F#5
    PM|          PM--|            PM|
    E  E  E  E   S S  E  E  E     E  E  E  E H
|-----------------------------|--------------------||
|-----------------------------|-------------------o||
|------------------------5--4-|--------------------||
|---2--2--5--4---2-2--2--5--4-|---2--2--5--4-------||
|---2--2--5--4---2-2--2--3--2-|---2--2--5--4------o||
|---0--0--3--2---0-0--0-------|---0--0--3--2-------||
|
|   E  E  E  E   E    E  E  E     E  E  E  E H
|-/19----------/19------------|-/19----------------||
|-----------------------------|-------------------o||
|-----16-16-16-------16-16-16-|-----16-16-16-------||
|-----------------------------|--------------------||
|-----------------------------|-------------------o||
|-----------------------------|--------------------||


 Verse
  E5       G5    A5   E5    A5 G5      E5       G5    A5   E5     A5 G5
   H         Q   Q    H     Q   Q       H         Q   Q    H      Q   Q
|-------------------|----------------|-------------------|---------------|
|-------------------|----------------|-------------------|---------------|
|-------------------|----------------|-------------------|---------------|
|--2---------5---7--|-2-----7--/5----|--2---------5---7--|-2------7--/5--|
|--2---------5---7--|-2-----7--/5----|--2---------5---7--|-2------7--/5--|
|--0---------3---5--|-0-----5--/3----|--0---------3---5--|-0------5--/3--|
|
| Gtr II
|                     ~~                                   ~~~~~~
|  H        +H        H.       +Q       H        +H        Q  H.
|-(9)-------(9)-----|----------------|-(9)-------(9)-----|---------------|
|-10b12r===(10)-----|----------------|-10b12r===(10)-----|---------------|
|-------------------|----------------|-------------------|---------------|
|-------------------|-7--------(7)\--|-------------------|-7--5----------|
|-------------------|----------------|-------------------|---------------|
|-------------------|----------------|-------------------|---------------|


  E5   G5 A5   E5   A5 G5    E5   G5 A5   E5   A5 G5
  H    Q  Q    H    Q   Q    H    Q  Q    H    Q   Q
|------------|-------------|------------|-------------|
|------------|-------------|------------|-------------|
|------------|-------------|------------|-------------|
|-2----5--7--|-2----7--/5--|-2----5--7--|-2----7--/5--|
|-2----5--7--|-2----7--/5--|-2----5--7--|-2----7--/5--|
|-0----3--5--|-0----5--/3--|-0----3--5--|-0----5--/3--|


 Bridge
  E5     Bb5       E5       Bb5       A5
   PM--|           PM--|
   S S E S     +S  S S   E  S     +E. E
|---------------------------------------|
|---------------------------------------|
|---------------------------------------|
|--------8b8.5r(8)----------8b8.5r(8)-7-|
|--2-2-2-8b8.5r(8)-2-2---2--8b8.5r(8)-7-|
|--0-0-0-6b6.5r(6)-0-0---0--6b6.5r(6)-5-|
|
| Gtr II
|                        ~~~~
|  H                    +H
|---------------------------------------|
|-11-------------------(11)-------------|
|---------------------------------------|
|---------------------------------------|
|---------------------------------------|
|---------------------------------------|


  E5     Bb5       E5       Bb5       A5
   PM--|           PM--|
   S S E S     +S  S S   E  S     +E. E
|---------------------------------------|
|---------------------------------------|
|---------------------------------------|
|--------8b8.5r(8)----------8b8.5r(8)-7-|
|--2-2-2-8b8.5r(8)-2-2---2--8b8.5r(8)-7-|
|--0-0-0-6b6.5r(6)-0-0---0--6b6.5r(6)-5-|
|
|                        ~~~~
|  H                    +H
|---------------------------------------|
|-10-------------------(10)-------------|
|---------------------------------------|
|---------------------------------------|
|---------------------------------------|
|---------------------------------------|


  E5               E5       Bb5       A5
   PM--|           PM--|
   S S E S     +S  S S   E  S     +E. E
|---------------------------------------|
|---------------------------------------|
|---------------------------------------|
|--------8b8.5r(8)----------8b8.5r(8)-7-|
|--2-2-2-8b8.5r(8)-2-2---2--8b8.5r(8)-7-|
|--0-0-0-6b6.5r(6)-0-0---0--6b6.5r(6)-5-|
|
|                        ~~~~
|  H                    +H
|---------------------------------------|
|-11-------------------(11)-------------|
|---------------------------------------|
|---------------------------------------|
|---------------------------------------|
|---------------------------------------|
|
| Gtr III
|  W
|---------------------------------------|
|---------------------------------------|
|---------------------------------------|
|---------------------------------------|
|---------------------------------------|
|---------------------------------------|


  E5     Bb5          E5                Bb5                  A5
   PM--|              PM------|
   S S E S       +S   S   S     E       S       +E.          E
|--------------------------------------------------------------------|
|--------------------------------------------------------------------|
|--------------------------------------------------------------------|
|--------8b8.5r==(8)--------------------8b8.5r==(8)----------7-------|
|--2-2-2-8b8.5r==(8)--2---2-----2-------8b8.5r==(8)----------7-------|
|--0-0-0-6b6.5r==(6)--0---0-----0-------6b6.5r==(6)----------5-------|
|
|                               ~~~~
|  H                           +H
|--------------------------------------------------------------------|
|-10--------------------------(10)-----------------------------------|
|--------------------------------------------------------------------|
|--------------------------------------------------------------------|
|--------------------------------------------------------------------|
|--------------------------------------------------------------------|
|
|        TP    TP TPTPTPTPTPTP  TPTPTPTPTP    TP TPTPTPTPTPTPTPTPTPTP
|  Q     T     T  T T T T T T   T T T T T     T  T T T T T T T T T T
|--------------------------------------------------------------------|
|--------------------------------------------------------------------|
|--------xs====xs=xsxsxsxsxsx---xsxsxsxsxs====xs=xsxsxsxsxsxsxsxsxsx-|
|--------xs====xs=xsxsxsxsxsx---xsxsxsxsxs====xs=xsxsxsxsxsxsxsxsxsx-|
|--------------------------------------------------------------------|
|--------------------------------------------------------------------|


   Bridge (2nd Phase)
    E5     Bb5       E5       Bb5       A5
     PM--|           PM--|
     S S E S     +S  S S   E  S     +E. E
||----------------------------------------|
||o---------------------------------------|
||----------------------------------------|
||---------8b8.5r(8)----------8b8.5r(8)-7-|
||o--2-2-2-8b8.5r(8)-2-2---2--8b8.5r(8)-7-|
||---0-0-0-6b6.5r(6)-0-0---0--6b6.5r(6)-5-|
|
|                          ~~~~
|    H                    +H
||----------------------------------------|
||o-11-------------------(11)-------------|
||----------------------------------------|
||----------------------------------------|
||o---------------------------------------|
||----------------------------------------|


  E5       Bb5       E5       Bb5       A5
    PM---|           PM--|
    S  S E S     +S  S S   E  S     +E. E
|------------------------------------------||
|-----------------------------------------o||
|------------------------------------------||
|----------8b8.5r(8)----------8b8.5r(8)-7--||
|---2--2-2-8b8.5r(8)-2-2---2--8b8.5r(8)-7-o||
|---0--0-0-6b6.5r(6)-0-0---0--6b6.5r(6)-5--||
|
|                          ~~~~
|   H                     +H
|------------------------------------------||
|-[10]-------------------(10)-------------o||
|------------------------------------------||
|------------------------------------------||
|-----------------------------------------o||
|------------------------------------------||


 Pre-Chorus
  E5
   S S S E. S S   S   Q.   S   S S S E. S S S Q.   S
|----------------------------|-----------------------|
|----------------------------|-----------------------|
|----------------------------|-----------------------|
|--2-2-2----2-2---2----------|-2-2-2----2-2-2--------|
|--2-2-2----2-2---2----------|-2-2-2----2-2-2--------|
|--0-0-0----0-0---0----------|-0-0-0----0-0-0--------|
|
|  ~~
|  H             +H            W
|----------------------------|-----------------------|
|-11------------(11)\--------|-----------------------|
|----------------------------|-----------------------|
|----------------------------|-----------------------|
|----------------------------|-----------------------|
|----------------------------|-----------------------|


  S S S E. S S S Q.   S   S S S E. S S S E.   Q
|-----------------------|--------------------------|
|-----------------------|--------------------------|
|-----------------------|--------------------------|
|-2-2-2----2-2-2--------|-2-2-2----2-2-2-----------|
|-2-2-2----2-2-2--------|-2-2-2----2-2-2-----------|
|-0-0-0----0-0-0--------|-0-0-0----0-0-0----/12\---|
|
| W                       W
|-----------------------|--------------------------|
|-----------------------|--------------------------|
|-----------------------|--------------------------|
|-----------------------|--------------------------|
|-----------------------|--------------------------|
|-----------------------|--------------------------|


 Chorus 2
  E5     G5 F#5E5       C5 B5   E5     G5 F#5E5       C5 B5
    PM|          PM--|            PM|          PM--|
    E  E  E  E   S S  E  E  E     E  E  E  E   S S  E  E  E
|-----------------------------|-----------------------------|
|-----------------------------|-----------------------------|
|------------------------5--4-|------------------------5--4-|
|---2--2--5--4---2-2--2--5--4-|---2--2--5--4---2-2--2--5--4-|
|---2--2--5--4---2-2--2--3--2-|---2--2--5--4---2-2--2--3--2-|
|---0--0--3--2---0-0--0-------|---0--0--3--2---0-0--0-------|
|
| Gtr IV
|   E  E  E  E   E    E  E  E     E  E  E  E   E    E  E  E
|-/19----------/19------------|-/19----------/19------------|
|-----------------------------|-----------------------------|
|-----16-16-16-------16-16-16-|-----16-16-16-------16-16-16-|
|-----------------------------|-----------------------------|
|-----------------------------|-----------------------------|
|-----------------------------|-----------------------------|
|
| Gtr II
|   W                             W
|-----------------------------|-----------------------------|
|-----------------------------|-----------------------------|
|-----------------------------|-----------------------------|
|-----------------------------|-----------------------------|
|-----------------------------|-----------------------------|
|-----------------------------|-----------------------------|


  E5     G5 F#5         C5 B5   E5     G5 F#5
    PM|          PM--|            PM|
    E  E  E  E   S S  E  E  E     E  E  E  E H
|-----------------------------|-----------------------
|-----------------------------|-----------------------
|------------------------5--4-|-----------------------
|---2--2--5--4---2-2--2--5--4-|---2--2--5--4----------
|---2--2--5--4---2-2--2--3--2-|---2--2--5--4----------
|---0--0--3--2---0-0--0-------|---0--0--3--2----------
|
|   E  E  E  E   E    E  E  E     E  E  E  E H
|-/19----------/19------------|-/19-------------------
|-----------------------------|-----------------------
|-----16-16-16-------16-16-16-|-----16-16-16----------
|-----------------------------|-----------------------
|-----------------------------|-----------------------
|-----------------------------|-----------------------
|
|   W                             H          E Q.
|-----------------------------|-----------------------
|-----------------------------|-----------------------
|-----------------------------|----------------2b4----
|-----------------------------|-----------------------
|-----------------------------|-----------------------
|-----------------------------|-----------------------


  E5      G5 F#5E5       C5 B5   E5     G5 F#5E5       C5 B5
    PM-|          PM--|            PM|          PM--|
    E   E  E  E   S S  E  E  E     E  E  E  E   S S  E  E  E
|------------------------------|-----------------------------|
|------------------------------|-----------------------------|
|-------------------------5--4-|------------------------5--4-|
|---2---2--5--4---2-2--2--5--4-|---2--2--5--4---2-2--2--5--4-|
|---2---2--5--4---2-2--2--3--2-|---2--2--5--4---2-2--2--3--2-|
|---0---0--3--2---0-0--0-------|---0--0--3--2---0-0--0-------|
|
|   E   E  E  E   E    E  E  E     E  E  E  E   E    E  E  E
|-/19-----------/19------------|-/19----------/19------------|
|------------------------------|-----------------------------|
|------16-16-16-------16-16-16-|-----16-16-16-------16-16-16-|
|------------------------------|-----------------------------|
|------------------------------|-----------------------------|
|------------------------------|-----------------------------|
|
|  +H             H                W
|------------------------------|-----------------------------|
|------------------------------|-----------------------------|
|--(2)-------------------------|-----------------------------|
|------------------------------|-----------------------------|
|------------------------------|-----------------------------|
|------------------------------|-----------------------------|


  E5     G5 F#5E5       C5 B5   E5     G5 F#5
    PM|          PM--|            PM|
    E  E  E  E   S S  E  E  E     E  E  E  E Q    Q
|-----------------------------|------------------------|
|-----------------------------|------------------------|
|------------------------5--4-|------------------------|
|---2--2--5--4---2-2--2--5--4-|---2--2--5--4-----------|
|---2--2--5--4---2-2--2--3--2-|---2--2--5--4-----------|
|---0--0--3--2---0-0--0-------|---0--0--3--2----/12\---|
|
|   E  E  E  E   E    E  E  E     E  E  E  E H
|-/19----------/19------------|-/19--------------------|
|-----------------------------|------------------------|
|-----16-16-16-------16-16-16-|-----16-16-16-----------|
|-----------------------------|------------------------|
|-----------------------------|------------------------|
|-----------------------------|------------------------|
|
|   W                             W
|-----------------------------|------------------------|
|-----------------------------|------------------------|
|-----------------------------|------------------------|
|-----------------------------|------------------------|
|-----------------------------|------------------------|
|-----------------------------|------------------------|


 Verse 2
  E5   G5 A5   E5     A5 G5    E5     G5 A5
  H    Q  Q     H     Q   Q     H     Q  Q
|------------|---------------|--------------|
|------------|---------------|--------------|
|------------|---------------|--------------|
|-2----5--7--|--2-----7--/5--|--2-----5--7--|
|-2----5--7--|--2-----7--/5--|--2-----5--7--|
|-0----3--5--|--0-----5--/3--|--0-----3--5--|
|
| Gtr II
| W             W              +W
|------------|---------------|--------------|
|------------|--8------------|-(8)----------|
|-9----------|-(9)-----------|-(9)----------|
|------------|---------------|--------------|
|------------|---------------|--------------|
|------------|---------------|--------------|


  E5                 A5              G5
  H                  Q                Q
|--------------------------------------------------------|
|--------------------------------------------------------|
|--------------------------------------------------------|
|-2------------------7---------------/5------------------|
|-2------------------7---------------/5------------------|
|-0------------------5---------------/3------------------|
|
|                                     |--3--|  |--3--|
| S   +S  E     Q    S   +S  S   +S   S  S  S  S  S  S
|---------------0----------------------------------------|
|--------------------------------------------------------|
|--------------------------------------------------------|
|-7b9r(7)-7b9==(7)r--7b9r(7)-7b9r(7)---------------------|
|------------------------------------14-12-10-14-12-10---|
|--------------------------------------------------------|


  E5    G5 A5   E5               A5              G5
   H    Q  Q    H                Q                Q
|-------------|---------------------------------------------------|
|-------------|---------------------------------------------------|
|-------------|---------------------------------------------------|
|--2----5--7--|-2----------------7---------------/5---------------|
|--2----5--7--|-2----------------7---------------/5---------------|
|--0----3--5--|-0----------------5---------------/3---------------|
|
|               Gtr III
|  ~~                TPTPTPTPTPTPTPTPTPTPTPTPTPTP TPTPTPTPTPTPTPTP
|  W            Q  S T T T T T T T T T T T T T T  T T T T T T T T
|-------------|---------------------------------------------------|
|-------------|---------------------------------------------------|
|-------------|------xsxsxsxsxsxsxsx-xsxsxsxsxsxs=xsxsxsxsxsxsxsxs|
|-------------|------xsxsxsxsxsxsxsx-xsxsxsxsxsxs=xsxsxsxsxsxsxsxs|
|-------------|---------------------------------------------------|
|-12----------|---------------------------------------------------|


  E5       G5 A5     E5   A5 G5
  H        Q  Q      H    Q   Q
|------------------|--------------|
|------------------|--------------|
|------------------|--------------|
|-2--------5--7----|-2----7--/5---|
|-2--------5--7----|-2----7--/5---|
|-0--------3--5----|-0----5--/3---|
|
| TPTP
| T T H.        E.   W
|------------------|--------------|
|------------------|--------------|
|-xsx--------------|--------------|
|-xsx--------------|--------------|
|------------------|--------------|
|------------------|--------------|


   Outro
                                           1.
    E5     Bb5       E5       Bb5       A5  E5     Bb5       E5       Bb5       A5
     PM--|           PM--|                   PM--|           PM--|
     S S E S     +S  S S   E  S     +E. E    S S E S     +S  S S   E  S     +E. E
||----------------------------------------|----------------------------------------||
||o---------------------------------------|---------------------------------------o||
||----------------------------------------|----------------------------------------||
||---------8b8.5r(8)----------8b8.5r(8)-7-|--------8b8.5r(8)----------8b8.5r(8)-7--||
||o--2-2-2-8b8.5r(8)-2-2---2--8b8.5r(8)-7-|--2-2-2-8b8.5r(8)-2-2---2--8b8.5r(8)-7-o||
||---0-0-0-6b6.5r(6)-0-0---0--6b6.5r(6)-5-|--0-0-0-6b6.5r(6)-0-0---0--6b6.5r(6)-5--||
|
|   Gtr II
|                          ~~~~                                    ~~~~
|    H                    +H                 H                    +H
||----------------------------------------|----------------------------------------||
||o-11-------------------(11)-------------|-10-------------------(10)-------------o||
||----------------------------------------|----------------------------------------||
||----------------------------------------|----------------------------------------||
||o---------------------------------------|---------------------------------------o||
||----------------------------------------|----------------------------------------||
|
|   Gtr V
|    W                                       W
||----------------------------------------|----------------------------------------||
||o---------------------------------------|---------------------------------------o||
||----------------------------------------|----------------------------------------||
||----------------------------------------|----------------------------------------||
||o---------------------------------------|---------------------------------------o||
||----------------------------------------|----------------------------------------||


 2.
  E5     Bb5            E5                       Bb5                    A5
   PM--|                  PM-------|
   S S E  S      +S       S   S      E             S        +E.         E
|---------------------------------------------------------------------------|
|---------------------------------------------------------------------------|
|---------------------------------------------------------------------------|
|---------8b8.5r=(8)-------------------------------8b8.5r===(8)---------7---|
|--2-2-2--8b8.5r=(8)------2---2------2-------------8b8.5r===(8)---------7---|
|--0-0-0--6b6.5r=(6)------0---0------0-------------6b6.5r===(6)---------5---|
|
|                                    ~~~~
|  H                                +H
|---------------------------------------------------------------------------|
|-10-------------------------------(10)-------------------------------------|
|---------------------------------------------------------------------------|
|---------------------------------------------------------------------------|
|---------------------------------------------------------------------------|
|---------------------------------------------------------------------------|
|
|                             |----3-----|         |-----3------|
|  Q      S      +S      +S   S  S       S  S     +S      S     S  Q
|--------10b11r=(10)b11r(10)-12p10------------------------------------------|
|---------------------------------------10------------------------10tr8-----|
|------------------------------------------12b14-(12)----12-----9-----------|
|---------------------------------------------------------------------------|
|---------------------------------------------------------------------------|
|---------------------------------------------------------------------------|


    E5     Bb5       E5       Bb5       A5
     PM--|           PM--|
     S S E S     +S  S S   E  S     +E. E
||----------------------------------------|
||o---------------------------------------|
||----------------------------------------|
||---------8b8.5r(8)----------8b8.5r(8)-7-|
||o--2-2-2-8b8.5r(8)-2-2---2--8b8.5r(8)-7-|
||---0-0-0-6b6.5r(6)-0-0---0--6b6.5r(6)-5-|
|
|                          ~~~~
|    H                    +H
||----------------------------------------|
||o-11-------------------(11)-------------|
||----------------------------------------|
||----------------------------------------|
||o---------------------------------------|
||----------------------------------------|


  E5     Bb5       E5       Bb5       A5
   PM--|           PM--|
   S S E S     +S  S S   E  S     +E. E  4x
|----------------------------------------||
|---------------------------------------o||
|----------------------------------------||
|--------8b8.5r(8)----------8b8.5r(8)-7--||
|--2-2-2-8b8.5r(8)-2-2---2--8b8.5r(8)-7-o||
|--0-0-0-6b6.5r(6)-0-0---0--6b6.5r(6)-5--||
|
|                        ~~~~
|  H                    +H               4x
|----------------------------------------||
|-10-------------------(10)-------------o||
|----------------------------------------||
|----------------------------------------||
|---------------------------------------o||
|----------------------------------------||


  E5     Bb5       E5       Bb5       A5
   PM--|           PM--|
   S S E S     +S  S S   E  S     +E. E
|---------------------------------------|
|---------------------------------------|
|---------------------------------------|
|--------8b8.5r(8)----------8b8.5r(8)-7-|
|--2-2-2-8b8.5r(8)-2-2---2--8b8.5r(8)-7-|
|--0-0-0-6b6.5r(6)-0-0---0--6b6.5r(6)-5-|
|
|                        ~~~~
|  H                    +H
|---------------------------------------|
|-11-------------------(11)-------------|
|---------------------------------------|
|---------------------------------------|
|---------------------------------------|
|---------------------------------------|
|
| Gtr V
|  S S E S     +S  S S   E  Q.
|---------------------------------------|
|---------------------------------------|
|---------------------------------------|
|--------2b2.5r(2)----------------------|
|---------------------------------------|
|--0-0-0-----------0-0---0--------------|


  E5     Bb5       E5       Bb5       A5
   PM--|           PM--|
   S S E S     +S  S S   E  S     +E. E
|---------------------------------------|
|---------------------------------------|
|---------------------------------------|
|--------8b8.5r(8)----------8b8.5r(8)-7-|
|--2-2-2-8b8.5r(8)-2-2---2--8b8.5r(8)-7-|
|--0-0-0-6b6.5r(6)-0-0---0--6b6.5r(6)-5-|
|
|                        ~~~~
|  H                    +H
|---------------------------------------|
|-10-------------------(10)-------------|
|---------------------------------------|
|---------------------------------------|
|---------------------------------------|
|---------------------------------------|
|
|  W
|---------------------------------------|
|---------------------------------------|
|---------------------------------------|
|---------------------------------------|
|---------------------------------------|
|---------------------------------------|


  E5     Bb5       E5       Bb5       A5
   PM--|           PM--|
   S S E S     +S  S S   E  S     +E. E
|---------------------------------------|
|---------------------------------------|
|---------------------------------------|
|--------8b8.5r(8)----------8b8.5r(8)-7-|
|--2-2-2-8b8.5r(8)-2-2---2--8b8.5r(8)-7-|
|--0-0-0-6b6.5r(6)-0-0---0--6b6.5r(6)-5-|
|
|                        ~~~~
|  H                    +H
|---------------------------------------|
|-11-------------------(11)-------------|
|---------------------------------------|
|---------------------------------------|
|---------------------------------------|
|---------------------------------------|
|
|  W
|---------------------------------------|
|---------------------------------------|
|---------------------------------------|
|---------------------------------------|
|---------------------------------------|
|---------------------------------------|


  E5     Bb5       E5            Bb5                  A5
   PM--|           PM--|
   S S E S     +S  S S   E       S       +E.          E
|-------------------------------------------------------------|
|-------------------------------------------------------------|
|-------------------------------------------------------------|
|--------8b8.5r(8)---------------8b8.5r==(8)----------7-------|
|--2-2-2-8b8.5r(8)-2-2---2-------8b8.5r==(8)----------7-------|
|--0-0-0-6b6.5r(6)-0-0---0-------6b6.5r==(6)----------5-------|
|
|                        ~~~~
|  H                    +H
|-------------------------------------------------------------|
|-10-------------------(10)-----------------------------------|
|-------------------------------------------------------------|
|-------------------------------------------------------------|
|-------------------------------------------------------------|
|-------------------------------------------------------------|
|
| Gtr III
|                        TPTPTPTPTP    TP TPTPTPTPTPTPTPTPTPTP
|  H                     T T T T T     T  T T T T T T T T T T
|-------------------------------------------------------------|
|-------------------------------------------------------------|
|------------------------xsxsxsxsxs====xs=xsxsxsxsxsxsxsxsxsx-|
|------------------------xsxsxsxsxs====xs=xsxsxsxsxsxsxsxsxsx-|
|-------------------------------------------------------------|
|-------------------------------------------------------------|


  E5     Bb5       E5       Bb5              A5
   PM--|           PM--|
   S S E S     +S  S S   E   S     +E.       E
|----------------------------------------------|
|----------------------------------------------|
|----------------------------------------------|
|--------8b8.5r(8)-----------8b8.5r(8)-------7-|
|--2-2-2-8b8.5r(8)-2-2---2---8b8.5r(8)-------7-|
|--0-0-0-6b6.5r(6)-0-0---0---6b6.5r(6)-------5-|
|
|                        ~~~~
|  H                    +H
|----------------------------------------------|
|-11-------------------(11)--------------------|
|----------------------------------------------|
|----------------------------------------------|
|----------------------------------------------|
|----------------------------------------------|
|
| Gtr V
|  H                    +E   E.         E.
|---------------------------12---------12------|
|---------------------------15b17------15b17---|
|----------------------------------------------|
|----------------------------------------------|
|----------------------------------------------|
|-12-------------------(12)--------------------|


  E5        Bb5       E5       Bb5              A5
   PM-----|           PM--|
   S    S E S     +S  S S   E   S     +E.       E
|-------------------------------------------------|
|-------------------------------------------------|
|-------------------------------------------------|
|-----------8b8.5r(8)-----------8b8.5r(8)-------7-|
|--2----2-2-8b8.5r(8)-2-2---2---8b8.5r(8)-------7-|
|--0----0-0-6b6.5r(6)-0-0---0---6b6.5r(6)-------5-|
|
|                           ~~~~
|  H                       +H
|-------------------------------------------------|
|-10----------------------(10)--------------------|
|-------------------------------------------------|
|-------------------------------------------------|
|-------------------------------------------------|
|-------------------------------------------------|
|
|  ~~~~~
|  H                        E   E.         E.
|-12----------------------------------------------|
|-15b17-------------------------------------------|
|------------------------------14b16------14b16---|
|-------------------------------------------------|
|-------------------------------------------------|
|-------------------------------------------------|


  E5        Bb5       E5       Bb5              A5
   PM-----|           PM--|
   S    S E S     +S  S S   E   S      +E.       E
|-----------------------------------------------------|
|-----------------------------------------------------|
|-----------------------------------------------------|
|-----------8b8.5r(8)-----------8b8.5r=(8)-------7----|
|--2----2-2-8b8.5r(8)-2-2---2---8b8.5r=(8)-------7----|
|--0----0-0-6b6.5r(6)-0-0---0---6b6.5r=(6)-------5----|
|
|                           ~~~~
|  H                       +H
|-----------------------------------------------------|
|-11----------------------(11)------------------------|
|-----------------------------------------------------|
|-----------------------------------------------------|
|-----------------------------------------------------|
|-----------------------------------------------------|
|
|  ~~~~~
|  H                        E   S      +S   +E   S  S
|-----------------------------------------------------|
|-12--------------------------------------------------|
|-14b16------------------------14b16==(14)r(14)-12----|
|--------------------------------------------------14-|
|-----------------------------------------------------|
|-----------------------------------------------------|


  E5              Bb5            E5          Bb5        A5
    PM---|                        PM--|
    S  S  E       S          +S   S S   E     S     +E. E
|----------------------------------------------------------|
|----------------------------------------------------------|
|----------------------------------------------------------|
|-----------------8b8.5r=====(8)--------------8b8.5r(8)-7--|
|---2--2--2-------8b8.5r=====(8)--2-2---2-----8b8.5r(8)-7--|
|---0--0--0-------6b6.5r=====(6)--0-0---0-----6b6.5r(6)-5--|
|
|                                       ~~~~~~
|   H                                  +H
|----------------------------------------------------------|
|--10---------------------------------(10)-----------------|
|----------------------------------------------------------|
|----------------------------------------------------------|
|----------------------------------------------------------|
|----------------------------------------------------------|
|
|         |-------3-------|
|  +E     S  T  E        +S   S   S S   E     Q.
|----------------------------------------------------------|
|----------------------------------------------------------|
|--------------------------------------12----12------------|
|-(14)---14-------------------------9--15b17-15b17---------|
|-----------14p12-------(12)-10--12------------------------|
|----------------------------------------------------------|


  E5     Bb5        E5       Bb5                  A5
   PM--|            PM--|
   S S E  S     +S  S S   E    S     +E.           E
|--------------------------------------------------------|
|--------------------------------------------------------|
|--------------------------------------------------------|
|---------8b8.5r(8)------------8b8.5r(8)-----------7-----|
|--2-2-2--8b8.5r(8)-2-2---2----8b8.5r(8)-----------7-----|
|--0-0-0--6b6.5r(6)-0-0---0----6b6.5r(6)-----------5-----|
|
|                         ~~~~
|  H                     +H
|--------------------------------------------------------|
|-11--------------------(11)-----------------------------|
|--------------------------------------------------------|
|--------------------------------------------------------|
|--------------------------------------------------------|
|--------------------------------------------------------|
|
|  Q      Q.                   S      E       S    E
|--------12-------------------15-----12------15---12-----|
|--------15b17===============(15)r---15b17==(15)r-15b17==|
|--------------------------------------------------------|
|--------------------------------------------------------|
|--------------------------------------------------------|
|--------------------------------------------------------|


  E5                   Bb5        E5                      Bb5              A5
    PM---------|                    PM---------|
    S    S     E        S     +S    S    S       E         S     +E.       E
|----------------------------------------------------------------------------|
|----------------------------------------------------------------------------|
|----------------------------------------------------------------------------|
|-----------------------8b8.5r(8)--------------------------8b8.5r(8)-------7-|
|---2----2-----2--------8b8.5r(8)---2----2-------2---------8b8.5r(8)-------7-|
|---0----0-----0--------6b6.5r(6)---0----0-------0---------6b6.5r(6)-------5-|
|
|                                                ~~~~
|   H                                           +H
|----------------------------------------------------------------------------|
|--10------------------------------------------(10)--------------------------|
|----------------------------------------------------------------------------|
|----------------------------------------------------------------------------|
|----------------------------------------------------------------------------|
|----------------------------------------------------------------------------|
|
|                                                                     ~~~~~
|   S    E         S    E           S    E            S    E          Q
|--15---12--------15---12----------15---12-----------15---12---------17------|
|-(15)r-15b17====(15)r-15b17======(15)r-15b17=======(15)r-15b17------20b22---|
|----------------------------------------------------------------------------|
|----------------------------------------------------------------------------|
|----------------------------------------------------------------------------|
|----------------------------------------------------------------------------|


  E5     Bb5       E5       Bb5       A5
   PM--|           PM--|
   S S E S     +S  S S   E  S     +E. E
|---------------------------------------|
|---------------------------------------|
|---------------------------------------|
|--------8b8.5r(8)----------8b8.5r(8)-7-|
|--2-2-2-8b8.5r(8)-2-2---2--8b8.5r(8)-7-|
|--0-0-0-6b6.5r(6)-0-0---0--6b6.5r(6)-5-|
|
|                        ~~~~
|  H                    +H
|---------------------------------------|
|-11-------------------(11)-------------|
|---------------------------------------|
|---------------------------------------|
|---------------------------------------|
|---------------------------------------|


  E5     Bb5       E5       Bb5       A5
   PM--|           PM--|
   S S E S     +S  S S   E  S     +E. E
|---------------------------------------*|
|---------------------------------------*|
|---------------------------------------*|
|--------8b8.5r(8)----------8b8.5r(8)-7-*|
|--2-2-2-8b8.5r(8)-2-2---2--8b8.5r(8)-7-*|
|--0-0-0-6b6.5r(6)-0-0---0--6b6.5r(6)-5-*|
|
|                        ~~~~
|  H                    +H
|---------------------------------------*|
|-10-------------------(10)-------------*|
|---------------------------------------*|
|---------------------------------------*|
|---------------------------------------*|
|---------------------------------------*|



Duration Legend
---------------
W - whole; H - half; Q - quarter; E - 8th; S - 16th; T - 32nd; X - 64th; a - acciaccatura
+ - note tied to previous; . - note dotted; .. - note double dotted
Uncapitalized letters represent notes that are staccato (1/2 duration)
Irregular groupings are notated above the duration line
Duration letters will always appear directly above the note/fret number it represents the
duration for.  Duration letters with no fret number below them represent rests.  Multi-
bar rests are notated in the form Wxn, where n is the number of bars to rest for.  Low
melody durations appear below the staff

Tablature Legend
----------------
 h   - hammer-on
 p   - pull-off
 b   - bend
 pb  - pre-bend
 r   - bend release (if no number after the r, then release immediately)
 /\  - slide into or out of (from/to "nowhere")
 s   - legato slide
 S   - shift slide
 - natural harmonic
[n]  - artificial harmonic
n(n) - tapped harmonic
 ~   - vibrato
 tr  - trill
 T   - tap
 TP  - trem. picking
 PM  - palm muting
\n/  - tremolo bar dip; n = amount to dip
 \n  - tremolo bar down
 n/  - tremolo bar up
/n\  - tremolo bar inverted dip
 =   - hold bend; also acts as connecting device for hammers/pulls
 <> - volume swell (louder/softer)
 x   - on rhythm slash represents muted slash
 o   - on rhythm slash represents single note slash

Misc Legend
-----------
 |  - bar
||  - double bar
||o - repeat start
o|| - repeat end
*|  - double bar (ending)
 :  - bar (freetime)
 $  - Segno
 &  - Coda
Tempo markers -  = BPM(8/16=s8/s16), where s8 = swing 8ths, s16 = swing 16ths

Tap to rate this tab
 
# A B C D E F G H I J K L M N O P Q R S T U V W X Y Z