Song name
# A B C D E F G H I J K L M N O P Q R S T U V W X Y Z

Motorhead - Dogs tab

the other tab is completley wrong. i dont know why, its an easy song

--------------------------------------|
--------------------------------------|
--------------6-6---------------------|
-6-4-6--6-4-6-6-6---------------------|
-6-4-6--6-4-6-4-4---------------------|
-4-2-4--4-2-4-------------------------|

--------------------------------------|
--------------------------------------|
-8-8-8-8-8-8-8-8-8-8-8----------------|
-8-8-8-8-8-8-8-8-8-8-8----------------|
-6-6-6-6-6-6-6-6-6-6-6----------------|
--------------------------------------|
we beleive in the graven image...

--------------------------------------|
--------------------------------------|
-1111111111111111111-10-9-8-----------|
-1111111111111111111-10-9\8-----------|
-9-9-9-9-9-9-9-9-9-9-8--7\6-----------|
--------------------------------------|
we desire the almighty....

--------------------------------------|
--------------------------------------|
--------------------------------------|
----4-------4-------------------------|
--6---6-4-6---6-4---------------------|
--------------------------------------|
its all the same...
Tap to rate this tab
# A B C D E F G H I J K L M N O P Q R S T U V W X Y Z