Song name
# A B C D E F G H I J K L M N O P Q R S T U V W X Y Z

Motorhead - Cat Scratch Fever tab

Artist: Motorhead
Song: Cat Scratch Fever
Album: March or Die
Tabbed By: Menno Roymans (the doctor)
Tuning: Eb

Riff 1:

---------------------------------------
---------------------------------------
---------------------------------------
-----4---55----4-5----2-4---55---5\4-2-
-----4---55----4-5----2-4---55---5\4-2-
-\00-2-0-33-000203-0000-2-0-33-003\2-0-
  ..   .    ... .  ...    .    ..    . 
palm mute the 0's

play four times


Riff 2:

-----------------------
-----------------------
-99-9-99-9--77----99-9-
-99-9-99-9--77-77-99-9-
-77-7-77-7--55-77-77-7-
---------------55------

play 2 times

1x Riff 1
2x Riff 2
2x Riff 1


Riff 3:		   alt.end

----------------   ----------------
----------------   ----------------
----------------   ----------------
-8------5-------   -9------9-------
-8------5-------   -9------9-------
-666666-333333--   -777777-777777--
 [.pm.] [.pm.]

play 4 times (last time with alt. ending)

under solo guitar 1 plays:

2x Riff 1
then:

-----------------
-----------------
-----------------
-7-7-99--5-5-77--
-7-7-99--5-5-77--
-5-5-77--3-3-55--

---------------------
---------------------
---------------------
----2-4---55---5\4-2-
----2-4---55---5\4-2-
-0000-2-0-33-003\2-0-

-----------------
-----------------
-----------------
-7-7-99--5-5-77--
-7-7-99--5-5-77--
-5-5-77--3-3-55--

---------------------------------------
---------------------------------------
---------------------------------------
-----4---55----4-5----2-4---55---5\4-2-
-----4---55----4-5----2-4---55---5\4-2-
-\00-2-0-33-000203-0000-2-0-33-003\2-0-


2x Riff 2
9x Riff 1

end with:

-------------------------
-------------------------
-------------------------
-----4---55--55--55--55--
-----4---55--55--55--55--
-\00-2-0-33--33--33--33--

repeat till fade

Thats it. Have fun with it. For comments mail to mennodeman@hotmail.com
Tap to rate this tab
# A B C D E F G H I J K L M N O P Q R S T U V W X Y Z