Song name
# A B C D E F G H I J K L M N O P Q R S T U V W X Y Z

Motorhead - Sucker tab

-------------------------------------------------------------------------------
			     SUCKER - Motorhead
-------------------------------------------------------------------------------
Tabbed by: Patty Kake
Email: weirdo593@comcast.net

Tuning: 1/2 step down

Intro:                                     Riff:

e|--------------------|--------------------|------------------|-----------------|
B|--------------------|--------------------|------------------|-----------------|
G|---+9---+9---+9---+9|---+9---+9---+9---+9|--4--4--4---7\4/7-|--4--4--4--7/9\7-|
D|--------------------|--------------------|--4--4--4---7\4/7-|--4--4--4--7/9\7-|
A|--------------------|--------------------|--2--2--2---5\2/5-|--2--2--2--5/7\5-|
E|--------------------|--------------------|------------------|-----------------|

Bridge:

e|-----------------|-----------------|-----------------|------------------------|
B|-----------------|-----------------|-----------------|------------------------|
G|--11---9---7---4-|--11---9---7---4-|--11---9---7---4-|--9-9-9-----11-11-11----|
D|--11---9---7---4-|--11---9---7---4-|--11---9---7---4-|--9-9-9-----11-11-11----|
A|--9----7---5---2-|--9----7---5---2-|--9----7---5---2-|--7-7-7-----9--9--9-----|
E|-----------------|-----------------|-----------------|------------------------|

Chorus (kind of): [SUCKER!!!!!!!!]

Repeat 4 times
e|----------------|
B|----------------|
G|--9/11--11--11--|
D|--9/11--11--11--|
A|--7/9---9---9---|
E|----------------|

I haven't figured out the solo yet, I'll come back and edit it. If anyone can help me 
that'd be toatlly awesome!


| /  slide up
| \  slide down
| h  hammer-on
| p  pull-off
| ~  vibrato
| +  harmonic
| x  Mute note
===============================================================================
Tap to rate this tab
 
# A B C D E F G H I J K L M N O P Q R S T U V W X Y Z