Song name
# A B C D E F G H I J K L M N O P Q R S T U V W X Y Z

Motorhead - Rock Out tab

Help us improve GuitareTab! Take a short survey!
Artist: Motrhead
Song: Rock Out
album: Motrizer
Year: 2008
Tabbed by: Midas

bass intro:

G----------------------------------------|
D----------------------------------------|
A---7-7--7-7-7-7-7-----------------------|
E----------------------------------------|

Then the guitar kicks in:

e----------------------------------------|
B----------------------------------------|
G---9-9--9-9-9-9-9-7~~-------------------|
D---9-9--9-9-9-9-9-7~~-------------------|
A---7-7--7-7-7-7-7-5~~-------------------|
E----------------------------------------|


e----------------------------------------|
B----------------------------------------|
G---9-9-9-9-9-9-9------7-7-7-7-----------|
D---9-9-9-9-9-9-9--X7--7-7-7-7-----------|
A---7-7-7-7-7-7-7------5-5-5-5-----------|
E----------------------------------------|

Verse 1:

e----------------------------------------|
B----------------------------------------|
G---9-9-9-9-9-9-9-9-9-9-9-9-9-9-9-9-9-9--|
D---9-9-9-9-9-9-9-9-9-9-9-9-9-9-9-9-9-9--|
A---7-7-7-7-7-7-7-7-7-7-7-7-7-7-7-7-7-7--|
E----------------------------------------|
1: Hear the music coming, loud as you can stand.
2: Let the beating to you, let it turn you 'round.

e----------------------------------------|
B----------------------------------------|
G---12-12-12-12-7-7-7-7-7-9-9-9-9-9-9----|
D---12-12-12-12-7-7-7-7-7-9-9-9-9-9-9----|
A---10-10-10-10-5-5-5-5-7-7-7-7-7-7-7----|
E----------------------------------------|
1: You will never be the same again.
2: Let it be your best friend.

Bridge kinda thing:

e----------------------------------------|
B----------------------------------------|
G----------------------------------------|
D---7-----------------9-11---------------|
A---7-----------------9-11---------------|
E---5-----------------7-9----------------|
    You are the future, it's your time.

e----------------------------------------|
B----------------------------------------|
G---9-9-9-9-9-9-9-9-7-7-7-7-7-7-7-7-7-7--|
D---9-9-9-9-9-9-9-9-7-7-7-7-7-7-7-7-7-7--|
A---7-7-7-7-7-7-7-7-5-5-5-5-5-5-5-5-5-5--|
E----------------------------------------|
 You and  you  and  you

e----------------------------------------|
B----------------------------------------|
G----------------------------------------|
D---7-----------------9-11---------------|
A---7-----------------9-11---------------|
E---5-----------------7-9----------------|
    Stay together,     this is yours and mine

e-----------------------------------------|
B-----------------------------------------|
G-----------------------------------------|
D---11-11-9-----------------9-10-11-12-13-|
A---11-11-9-----------------9-10-11-12-13-|
E---9--9--7-----------------7-8--9--10-11-|
          What we gonna do

Chorus:

e----------------------------------------|
B----------------------------------------|
G---9-9-9-9--5--7------------------------|
D---9-9-9-9--5--7------------------------| 3x
A---7-7-7-7--3--5------------------------|
E----------------------------------------|
1:  Rock Out! 3x
2:  Rock Out! 3x

e----------------------------------------|
B----------------------------------------|
G---4-4-4-4-4-4-4------------------------|
D---4-4-4-4-4-4-4------------------------|
A---2-2-2-2-2-2-2------------------------|
E----------------------------------------|
1:  Let it crush your fear
2:  And you can get it here


bass:

G----------------------------------------|
D----------------------------------------|
A---7-7--7-7-7-7-7-----------------------|
E----------------------------------------|

Guitar kicks in again:

e----------------------------------------|
B----------------------------------------|
G---9-9--9-9-9-9-9-7~~-------------------|
D---9-9--9-9-9-9-9-7~~-------------------|
A---7-7--7-7-7-7-7-5~~-------------------|
E----------------------------------------|


e----------------------------------------|
B----------------------------------------|
G---9-9-9-9-9-9-9------7-7-7-7-----------|
D---9-9-9-9-9-9-9--X7--7-7-7-7-----------|
A---7-7-7-7-7-7-7------5-5-5-5-----------|
E----------------------------------------|

Verse 2:

e----------------------------------------|
B----------------------------------------|
G---9-9-9-9-9-9-9-9-9-9-9-9-9-9-9-9-9-9--|
D---9-9-9-9-9-9-9-9-9-9-9-9-9-9-9-9-9-9--|
A---7-7-7-7-7-7-7-7-7-7-7-7-7-7-7-7-7-7--|
E----------------------------------------|
1: Here comes the bass, thunder in the guts,
2: Now the guitar speaks, gonna drive you nuts,

e----------------------------------------|
B----------------------------------------|
G---12-12-12-12-7-7-7-7-7-9-9-9-9-9-9----|
D---12-12-12-12-7-7-7-7-7-9-9-9-9-9-9----|
A---10-10-10-10-5-5-5-5-7-7-7-7-7-7-7----|
E----------------------------------------|
1: Rock it til you cant stand.
2: Power under your hand.

Bridge kinda thing:

e----------------------------------------|
B----------------------------------------|
G----------------------------------------|
D---7-----------------9-11---------------|
A---7-----------------9-11---------------|
E---5-----------------7-9----------------|
    You are the people, now you shine.

e----------------------------------------|
B----------------------------------------|
G---9-9-9-9-9-9-9-9-7-7-7-7-7-7-7-7-7-7--|
D---9-9-9-9-9-9-9-9-7-7-7-7-7-7-7-7-7-7--|
A---7-7-7-7-7-7-7-7-5-5-5-5-5-5-5-5-5-5--|
E----------------------------------------|
 You and  you  and  you

e----------------------------------------|
B----------------------------------------|
G----------------------------------------|
D---7-----------------9-11---------------|
A---7-----------------9-11---------------|
E---5-----------------7-9----------------|
    Stay together,     let me speak the line

e-----------------------------------------|
B-----------------------------------------|
G-----------------------------------------|
D---11-11-9-----------------9-10-11-12-13-|
A---11-11-9-----------------9-10-11-12-13-|
E---9--9--7-----------------7-8--9--10-11-|
          What you gonna do

Chorus:

e----------------------------------------|
B----------------------------------------|
G---9-9-9-9--5--7------------------------|
D---9-9-9-9--5--7------------------------| 3x
A---7-7-7-7--3--5------------------------|
E----------------------------------------|
1:  Rock Out! 3x
2:  Rock Out! 3x

e----------------------------------------|
B----------------------------------------|
G---4-4-4-4-4-4-4------------------------|
D---4-4-4-4-4-4-4------------------------|
A---2-2-2-2-2-2-2------------------------|
E----------------------------------------|
1:  Let it crush your fear
2:  And you can get it here

Chorus again:

e----------------------------------------|
B----------------------------------------|
G---9-9-9-9--5--7------------------------|
D---9-9-9-9--5--7------------------------| 3x
A---7-7-7-7--3--5------------------------|
E----------------------------------------|
    Rock Out! Rock Out! With your cock out!

e----------------------------------------|
B----------------------------------------|
G---4-4-4-4-4-4-4------------------------|
D---4-4-4-4-4-4-4------------------------|
A---2-2-2-2-2-2-2------------------------|
E----------------------------------------|
    Impress your lady friends.

e----------------------------------------|
B----------------------------------------|
G---9-9-9-9--5--7------------------------|
D---9-9-9-9--5--7------------------------| 3x
A---7-7-7-7--3--5------------------------|
E----------------------------------------|
    Rock Out! 3x

e------------------------------------------------------------|
B------------------------------------------------------------|
G---4-4-4-4-4-4-4-4-4-4-4-4-4-4-4-4-4-4-4-4-4--9-------------|
D---4-4-4-4-4-4-4-4-4-4-4-4-4-4-4-4-4-4-4-4-4--9-------------|Hold this note!
A---2-2-2-2-2-2-2-2-2-2-2-2-2-2-2-2-2-2-2-2-2--7-------------|
E------------------------------------------------------------|
    Til Your life is at and end


Ending:

While holding that last note, do a pick slide on the E-string while the bass is
 playing its last part.

NO! NO! NO!

Thanks, this was my first tab ever, but I think its pretty accurate.
You can contact me on my myspace: www.myspace.com/midasss
Related for Rock Out tab