Song name
# A B C D E F G H I J K L M N O P Q R S T U V W X Y Z

Motorhead - Broken tab

Motörhead
Broken
From the album: "Overnight Sensation"

Listen the song to figure out how parts are played.
-----------------------------------------------------------------------------------
Guitar tune: Eb

Tabbed by: rockman85(rockman85_at_jippii.fi) _at_ = @


Intro:

Play this part 3x		Then end with this:
[..............................][.........]

e----------------------------------------------------------------------|
 ----------------------------------------------------------------------|
 --9-x-x-9-x-x-9-x-x-7-x-7/-9-x----------------------------------------|
 --9-x-x-9-x-x-9-x-x-7-x-7/-9-x---9-7-7-7/-9---------------------------|
 --7-x-x-7-x-x-7-x-x-5-x-5/-7-x---7-5-5-5/-7---------------------------|
E----------------------------------------------------------------------|

Verse:
e----------------------------------------------------------------------|
 ----------------------------------------------------------------------|
 -5-5-5-5-5--7-7-7-9-9----------5-5-5-5-5--7-7-7-----------------------|
 -5-5-5-5-5--7-7-7-9-9----------5-5-5-5-5--7-7-7-----------------------|
 -3-3-3-3-3--5-5-5-7-7----------3-3-3-3-3--5-5-5-----------------------|
E----------------------------------------------------------------------|

Chorus:
e----------------------------------------------------------------------|
 ----------------------------------------------------------------------|
 --9-9-9-9-9--5-5-5-5-5-------------7-7-7-7-7--------------------------|
 --9-9-9-9-9--5-5-5-5-5--5-5-5-5-5--7-7-7-7-7--------------------------|
 --7-7-7-7-7--3-3-3-3-3--5-5-5-5-5--5-5-5-5-5--------------------------|
E------------------------3-3-3-3-3-------------------------------------|

e----------------------------------------------------------------------|
 ----------------------------------------------------------------------|
 --9-9-9-9-9--5-5-5-5-5-------------2-2-2-2-2--------------------------|
 --9-9-9-9-9--5-5-5-5-5--5-5-5-5-5--2-2-2-2-2--------------------------|
 --7-7-7-7-7--3-3-3-3-3--5-5-5-5-5--0-0-0-0-0--------------------------|
E------------------------3-3-3-3-3-------------------------------------|

Interlude:
e----------------------------------------------------------------------|
 ----------------------------------------------------------------------|
 ----------------------------------------------------------------------|
 ---------5-5------5-5------5-5-------8-7------------------------------|
 ---------3-3------3-3------3-3-------6-5------------------------------|
E---3h4h5-----3h4h5----3h4h5----3h4h5----------------------------------|

After solo:
e----------------------------------------------------------------------|
 ----------------------------------------------------------------------|
 ----------------------------------------------------------------------|
 ---------5-5------5-5------5-5-------8-7-----------7()-5()------------|
 ---------3-3------3-3------3-3-------6-5---7()-5()-5()-3()------------|
E---3h4h5-----3h4h5----3h4h5----3h4h5-------5()-3()--------------------|


Ending
e----------------------------------------------------------------------|
 ----------------------------------------------------------------------|
 --9()---5()---7()-----------------------------------------------------|
 --9()---5()---7()-----------------------------------------------------|
 --7()---3()---5()-----------------------------------------------------|
E----------------------------------------------------------------------|


The Song:
Intro 1x
Verse 2x
Chorus 2x
Intro 1x
Verse 2x
Chorus 2x
Interlude 2x
Solo
After solo 1x
Intro 1x
Verse 2x
Chorus 3,5x then end with Ending chords
-----------------------------------------------------------------------------------------
Again, all comments are very welcome so don't hesitate to send them to my e-mail.
Tap to rate this tab
# A B C D E F G H I J K L M N O P Q R S T U V W X Y Z