Song name
# A B C D E F G H I J K L M N O P Q R S T U V W X Y Z

Motorhead - Bang To Rights tab

Tune down a half step

Riff 1 10x

Eb--------------------------------|
Bb--------------------------------|
Gb--------------------------------|
Db------5--7--0--2--5--2--0-------|
Ab-0-0-----------------------3--5-|
Eb

Riff 2 once

Eb-----------------------------------------------------------------------------------|
Bb-----------------------------------------------------------------------------------|
Gb-----------------------------------------------------------------------------------|
Db-12-12-12-12-12-12-12-12-12-12-12-12-12-12-12-12-12-12-9-9-9-9-9-9-9-9-9-8-8-8-8-8-|
Ab-10-10-10-10-10-10-10-10-10-10-10-10-10-10-10-10-10-10-7-7-7-7-7-7-7-7-7-6-6-6-6-6-|
Eb-----------------------------------------------------------------------------------|


Eb------------|
Bb------------|
Gb------------|
Db-7-7-7-7-7--|
Ab-5-5-5-5-5--|
Eb------------|

Riff 1 8x
Riff 2 once

Riff 3 once

Eb---------------------------------------------------------------------------------------|
Bb---------------------------------------------------------------------------------------|
Gb-5-5-5-5-5-5-5-5-5-5-5-5-5-5-5-5-5-5-8-8-8-8-8-8-8-8-8-8-8-8-8-8-8-8-8-8-7-7-7-7-7-7-7-|
Db-3-3-3-3-3-3-3-3-3-3-3-3-3-3-3-3-3-3-6-6-6-6-6-6-6-6-6-6-6-6-6-6-6-6-6-6-5-5-5-5-5-5-5-|
Ab---------------------------------------------------------------------------------------|
Eb---------------------------------------------------------------------------------------|

Eb-----------------------------------------------------------------|
Bb-----------------------------------------------------------------|
Gb-7-7-7-7-7-7-7-7-7-7-7-------------------------------------------|
Db-5-5-5-5-5-5-5-5-5-5-5-7-7-7-7-7-7-7-7-7-7-7-7-7-7-7-7-7-7-7-7---|
Ab-----------------------5-5-5-5-5-5-5-5-5-5-5-5-5-5-5-5-5-5-5-5---|
Eb-----------------------------------------------------------------|
Tap to rate this tab
 
# A B C D E F G H I J K L M N O P Q R S T U V W X Y Z