Song name
# A B C D E F G H I J K L M N O P Q R S T U V W X Y Z

Motorhead - Bomber tab

 
-----------------------------------------------------------------------------
			     Bomber - Motorhead
-----------------------------------------------------------------------------
Band: Motorhead
Song: Bomber
Album: Bomber

Tabbed by: deathx88
Email: deathx88@yahoo.com

Tuning: Standard




Riff 1 (intro)

      Q    Q    S S S S S S    Q    E  Q    S S S S S S  
D#||------------------------|---------------------------|
A#||-------9----7-----L-----|----------9----7-----L-----|
F#||-------9----7-8-7-8-7-8-|----------9----7-8-7-8-7-8-|
C#||--9---------------------|--9----9-------------------|
G#||--9---------------------|--9----9-------------------|
D#||--7---------------------|--7----7-------------------|


  Q    E  Q    S S S S S S    Q    E  Q    S S S S S S  
---------------------------|---------------------------|
----------7----5-----L-----|----------7----5-----L-----|
----------7----5-6-5-6-5-6-|----------7----5-6-5-6-5-6-|
--7----7-------------------|--7----7-------------------|
--7----7-------------------|--7----7-------------------|
--5----5-------------------|--5----5-------------------|


Riff 1b x3

  Q    E  Q    S S S S S S    Q    E  Q    S S S S S S  
---------------------------|---------------------------|
----------9----7-----L-----|----------9----7-----L-----|
----------9----7-8-7-8-7-8-|----------9----7-8-7-8-7-8-|
--9----9-------------------|--9----9-------------------|
--9----9-------------------|--9----9-------------------|
--7----7-------------------|--7----7-------------------|


  Q    E  Q    S S S S S S    Q    E  Q    S S S S S S  
---------------------------|---------------------------|
----------7----5-----L-----|----------7----5-----L-----|
----------7----5-6-5-6-5-6-|----------7----5-6-5-6-5-6-|
--7----7-------------------|--7----7-------------------|
--7----7-------------------|--7----7-------------------|
--5----5-------------------|--5----5-------------------|




Riff 2 x4

  Q    E  E  E  E  E  E     E  E  E  E  E  E  E  E    
-------------------------|--------------------------|
-------------------------|--------------------------|
-------------------------|--------------------------|
--9----9--------9--------|-----9-----------9--------|
--7----7--7--7--7--7--7--|--7--7--7--7--7--7--7--7--|
-------------------------|--------------------------|




Riff 1c (verse) x2

  Q    E  Q    S S S S S S    Q    E  Q    S S S S S S  
---------------------------|---------------------------|
----------9----7-----L-----|----------9----7-----L-----|
----------9----7-8-7-8-7-8-|----------9----7-8-7-8-7-8-|
--9----9-------------------|--9----9-------------------|
--9----9-------------------|--9----9-------------------|
--7----7-------------------|--7----7-------------------|


  Q    E  Q    S S S S S S    Q    E  Q    S S S S S S  
---------------------------|---------------------------|
----------9----7-----L-----|----------9----7-----L-----|
----------9----7-8-7-8-7-8-|----------9----7-8-7-8-7-8-|
--9----9-------------------|--9----9-------------------|
--9----9-------------------|--9----9-------------------|
--7----7-------------------|--7----7-------------------|


  Q    E  Q    S S S S S S    Q    E  Q    S S S S S S  
---------------------------|---------------------------|
----------7----5-----L-----|----------7----5-----L-----|
----------7----5-6-5-6-5-6-|----------7----5-6-5-6-5-6-|
--7----7-------------------|--7----7-------------------|
--7----7-------------------|--7----7-------------------|
--5----5-------------------|--5----5-------------------|


  Q    E  Q    S S S S S S    Q    E  Q    S S S S S S  
---------------------------|---------------------------|
----------7----5-----L-----|----------7----5-----L-----|
----------7----5-6-5-6-5-6-|----------7----5-6-5-6-5-6-|
--7----7-------------------|--7----7-------------------|
--7----7-------------------|--7----7-------------------|
--5----5-------------------|--5----5-------------------|




Riff 3 (chorus)

  Q    E  E  E  E  E  E    E  E  E  E  E  E  E  E    Q    E  E  E  E  E  E  
------------------------|-------------------------|------------------------|
------------------------|-------------------------|------------------------|
------------------------|-------------------------|------------------------|
--9----9--9--9--9--9--9-|--9--9--9--9--9--9--9--9-|--7----7--7--7--7--7--7-|
--7----7--7--7--7--7--7-|--7--7--7--7--7--7--7--7-|--5----5--5--5--5--5--5-|
------------------------|-------------------------|------------------------|


  E  E  E  E  E  E  E  E    Q    E  E  E  E  E  E    E  E  E  E  E  E  E  E  
-------------------------|------------------------|-------------------------|
-------------------------|------------------------|-------------------------|
-------------------------|------------------------|-------------------------|
--7--7--7--7--7--7--7--7-|--9----9--9--9--9--9--9-|--9--9--9--9--9--9--9--9-|
--5--5--5--5--5--5--5--5-|--7----7--7--7--7--7--7-|--7--7--7--7--7--7--7--7-|
-------------------------|------------------------|-------------------------|


  Q    E  E  E  E  E  E     Q    E  E  E  E  E  E   
-------------------------|-------------------------|
-------------------------|-------------------------|
-------------------------|-------------------------|
--5----5--5--5--5--5--5--|--7----7--7--7--7--7--7--|
--3----3--3--3--3--3--3--|--5----5--5--5--5--5--5--|
-------------------------|-------------------------|




Riff 1c (verse) x2

  Q    E  Q    S S S S S S    Q    E  Q    S S S S S S  
---------------------------|---------------------------|
----------9----7-----L-----|----------9----7-----L-----|
----------9----7-8-7-8-7-8-|----------9----7-8-7-8-7-8-|
--9----9-------------------|--9----9-------------------|
--9----9-------------------|--9----9-------------------|
--7----7-------------------|--7----7-------------------|


  Q    E  Q    S S S S S S    Q    E  Q    S S S S S S  
---------------------------|---------------------------|
----------9----7-----L-----|----------9----7-----L-----|
----------9----7-8-7-8-7-8-|----------9----7-8-7-8-7-8-|
--9----9-------------------|--9----9-------------------|
--9----9-------------------|--9----9-------------------|
--7----7-------------------|--7----7-------------------|


  Q    E  Q    S S S S S S    Q    E  Q    S S S S S S  
---------------------------|---------------------------|
----------7----5-----L-----|----------7----5-----L-----|
----------7----5-6-5-6-5-6-|----------7----5-6-5-6-5-6-|
--7----7-------------------|--7----7-------------------|
--7----7-------------------|--7----7-------------------|
--5----5-------------------|--5----5-------------------|


  Q    E  Q    S S S S S S    Q    E  Q    S S S S S S  
---------------------------|---------------------------|
----------7----5-----L-----|----------7----5-----L-----|
----------7----5-6-5-6-5-6-|----------7----5-6-5-6-5-6-|
--7----7-------------------|--7----7-------------------|
--7----7-------------------|--7----7-------------------|
--5----5-------------------|--5----5-------------------|




Riff 3 (chorus)

  Q    E  E  E  E  E  E    E  E  E  E  E  E  E  E    Q    E  E  E  E  E  E  
------------------------|-------------------------|------------------------|
------------------------|-------------------------|------------------------|
------------------------|-------------------------|------------------------|
--9----9--9--9--9--9--9-|--9--9--9--9--9--9--9--9-|--7----7--7--7--7--7--7-|
--7----7--7--7--7--7--7-|--7--7--7--7--7--7--7--7-|--5----5--5--5--5--5--5-|
------------------------|-------------------------|------------------------|


  E  E  E  E  E  E  E  E    Q    E  E  E  E  E  E    E  E  E  E  E  E  E  E  
-------------------------|------------------------|-------------------------|
-------------------------|------------------------|-------------------------|
-------------------------|------------------------|-------------------------|
--7--7--7--7--7--7--7--7-|--9----9--9--9--9--9--9-|--9--9--9--9--9--9--9--9-|
--5--5--5--5--5--5--5--5-|--7----7--7--7--7--7--7-|--7--7--7--7--7--7--7--7-|
-------------------------|------------------------|-------------------------|


  Q    E  E  E  E  E  E     Q    E  E  E  E  E  E   
-------------------------|-------------------------|
-------------------------|-------------------------|
-------------------------|-------------------------|
--5----5--5--5--5--5--5--|--7----7--7--7--7--7--7--|
--3----3--3--3--3--3--3--|--5----5--5--5--5--5--5--|
-------------------------|-------------------------|



Riff 1b x2

  Q    E  Q    S S S S S S    Q    E  Q    S S S S S S  
---------------------------|---------------------------|
----------9----7-----L-----|----------9----7-----L-----|
----------9----7-8-7-8-7-8-|----------9----7-8-7-8-7-8-|
--9----9-------------------|--9----9-------------------|
--9----9-------------------|--9----9-------------------|
--7----7-------------------|--7----7-------------------|


  Q    E  Q    S S S S S S    Q    E  Q    S S S S S S  
---------------------------|---------------------------|
----------7----5-----L-----|----------7----5-----L-----|
----------7----5-6-5-6-5-6-|----------7----5-6-5-6-5-6-|
--7----7-------------------|--7----7-------------------|
--7----7-------------------|--7----7-------------------|
--5----5-------------------|--5----5-------------------|




Riff 3b

  Q    E  E  E  E  E  E     E  E  E  E  E  E  E  E    
-------------------------|--------------------------|
-------------------------|--------------------------|
-------------------------|--------------------------|
--9----9--9--9--9--9--9--|--9--9--9--9--9--9--9--9--|
--7----7--7--7--7--7--7--|--7--7--7--7--7--7--7--7--| \ 
-------------------------|--------------------------|  \
							
							x3
  Q    E  E  E  E  E  E     E  E  E  E  E  E  E  E  
-------------------------|--------------------------|  /
-------------------------|--------------------------| /
-------------------------|--------------------------|
--7----7--7--7--7--7--7--|--7--7--7--7--7--7--7--7--|
--5----5--5--5--5--5--5--|--5--5--5--5--5--5--5--5--|
-------------------------|--------------------------|

  Q    E  E  E  E  E  E     E  E  E  E  E  E  E  E    
-------------------------|--------------------------|
-------------------------|--------------------------|
-------------------------|--------------------------|
--9----9--9--9--9--9--9--|--9--9--9--9--9--9--9--9--|
--7----7--7--7--7--7--7--|--7--7--7--7--7--7--7--7--|
-------------------------|--------------------------|


  Q    E  E  E  E  E  E     Q    E  E  E  E  E  E   
-------------------------|-------------------------|
-------------------------|-------------------------|
-------------------------|-------------------------|
--5----5--5--5--5--5--5--|--7----7--7--7--7--7--7--|
--3----3--3--3--3--3--3--|--5----5--5--5--5--5--5--|
-------------------------|-------------------------|




Riff 1c (verse) x2

  Q    E  Q    S S S S S S    Q    E  Q    S S S S S S  
---------------------------|---------------------------|
----------9----7-----L-----|----------9----7-----L-----|
----------9----7-8-7-8-7-8-|----------9----7-8-7-8-7-8-|
--9----9-------------------|--9----9-------------------|
--9----9-------------------|--9----9-------------------|
--7----7-------------------|--7----7-------------------|


  Q    E  Q    S S S S S S    Q    E  Q    S S S S S S  
---------------------------|---------------------------|
----------9----7-----L-----|----------9----7-----L-----|
----------9----7-8-7-8-7-8-|----------9----7-8-7-8-7-8-|
--9----9-------------------|--9----9-------------------|
--9----9-------------------|--9----9-------------------|
--7----7-------------------|--7----7-------------------|


  Q    E  Q    S S S S S S    Q    E  Q    S S S S S S  
---------------------------|---------------------------|
----------7----5-----L-----|----------7----5-----L-----|
----------7----5-6-5-6-5-6-|----------7----5-6-5-6-5-6-|
--7----7-------------------|--7----7-------------------|
--7----7-------------------|--7----7-------------------|
--5----5-------------------|--5----5-------------------|


  Q    E  Q    S S S S S S    Q    E  Q    S S S S S S  
---------------------------|---------------------------|
----------7----5-----L-----|----------7----5-----L-----|
----------7----5-6-5-6-5-6-|----------7----5-6-5-6-5-6-|
--7----7-------------------|--7----7-------------------|
--7----7-------------------|--7----7-------------------|
--5----5-------------------|--5----5-------------------|




Riff 3 (chorus)

  Q    E  E  E  E  E  E    E  E  E  E  E  E  E  E    Q    E  E  E  E  E  E  
------------------------|-------------------------|------------------------|
------------------------|-------------------------|------------------------|
------------------------|-------------------------|------------------------|
--9----9--9--9--9--9--9-|--9--9--9--9--9--9--9--9-|--7----7--7--7--7--7--7-|
--7----7--7--7--7--7--7-|--7--7--7--7--7--7--7--7-|--5----5--5--5--5--5--5-|
------------------------|-------------------------|------------------------|


  E  E  E  E  E  E  E  E    Q    E  E  E  E  E  E    E  E  E  E  E  E  E  E  
-------------------------|------------------------|-------------------------|
-------------------------|------------------------|-------------------------|
-------------------------|------------------------|-------------------------|
--7--7--7--7--7--7--7--7-|--9----9--9--9--9--9--9-|--9--9--9--9--9--9--9--9-|
--5--5--5--5--5--5--5--5-|--7----7--7--7--7--7--7-|--7--7--7--7--7--7--7--7-|
-------------------------|------------------------|-------------------------|


  Q    E  E  E  E  E  E     Q    E  E  E  E  E  E   
-------------------------|-------------------------|
-------------------------|-------------------------|
-------------------------|-------------------------|
--5----5--5--5--5--5--5--|--7----7--7--7--7--7--7--|
--3----3--3--3--3--3--3--|--5----5--5--5--5--5--5--|
-------------------------|-------------------------|




Riff 1b x10
play till fades out


  Q    E  Q    S S S S S S    Q    E  Q    S S S S S S  
---------------------------|---------------------------|
----------9----7-----L-----|----------9----7-----L-----|
----------9----7-8-7-8-7-8-|----------9----7-8-7-8-7-8-|
--9----9-------------------|--9----9-------------------|
--9----9-------------------|--9----9-------------------|
--7----7-------------------|--7----7-------------------|


  Q    E  Q    S S S S S S    Q    E  Q    S S S S S S  
---------------------------|---------------------------|
----------7----5-----L-----|----------7----5-----L-----|
----------7----5-6-5-6-5-6-|----------7----5-6-5-6-5-6-|
--7----7-------------------|--7----7-------------------|
--7----7-------------------|--7----7-------------------|
--5----5-------------------|--5----5-------------------|


*fade out*




Duration Legend
---------------
W - whole
H - half
Q - quarter
E - 8th
S - 16th
T - 32nd
X - 64th
. - note dotted
|-n-|  - n-tuplets


Tablature Legend
----------------
L - tied note
x - dead note
g - grace note
(n) - ghost note
> - accentuded note
NH - natural harmonic
AH - artificial harmonic
TH - tapped harmonic
SH - semi harmonic
PH - pitch harmonic
h - hammer on
p - pull off
b - bend
br - bendRelease
pb - preBend
pbr - preBendRelease
brb - bendReleaseBend
\n/ - tremolo bar dip
\n - tremolo bar dive
-/n - tremolo bar Release up
/n\ - tremolo bar inverted dip
/n - tremolo bar return
-\n - tremolo bar Release down
S - shift slide
s - legato slide
/ -  slide into from below or out of upwards
\ -  slide into from above or out of downwards
~ - vibrato
W - wide vibrato
tr - trill
TP - tremolo picking
T - tapping
S - slap
P - pop
< - fade in
^ - brush up
v - brush down
 
Tap to rate this tab
# A B C D E F G H I J K L M N O P Q R S T U V W X Y Z