Song name
# A B C D E F G H I J K L M N O P Q R S T U V W X Y Z

Motorhead - Marching Off To War tab

Haven't tabbed the solo, sorry, if anyone could tab it for me I would really appreciate 
is a really good song by Motorhead that doesn't really get as much attention as it
Some nice guitar in it.

Tune down to Eb.

h/p = hammer on/pull off
. = palm mute
b = bend
/ = slide
~ = vibrato

Intro

e|------------------------------------------------|
B|------------------------------------------------|
G|------------------------------------------------|
D|------------------------------------------------|
A|---0-0-0-0-0-0-0-0-0-0-0-0-0-0------------------|
E|------------------------------------------------|

e|--------------------------------------------------------------------------------------|
B|--------------------------------------------------------------------------------------|
G|--------------------------------------------------------------------------------------|
D|----5-5h7-------------------7---------5-5h7-------------------------------------------|
A|---------------0-0-0-0-0-0--5----7-------------0-0-0-0-0-0-0-5--5-3-5-----------------|
E|---------------------------------5----------------------------------------------------|

e|---------------------------------------------------------------------------------|
B|---------------------------------------------------------------------------------|
G|--------------------------------------------------------------5------------------|
D|----5-5h7-------------------7--------5-5h7----------5-7--7-5-7-------------------|
A|---------------0-0-0-0-0-0--5----7-------------5b--7-----------------------------|
E|---------------------------------5-----------------------------------------------|

Verse
e|--------------------------------------------------------------------------------------|
B|--------------------------------------------------------------------------------------|
G|--------------------------------------------------------------------------------------|
D|----5-5h7-------------------7---------5-5h7-------------------------------------------|
A|---------------0-0-0-0-0-0--5----7-------------0-0-0-0-0-0-0-5--5-3-5-----------------|
E|---------------------------------5----------------------------------------------------|

Verse End
e|----------------------|
B|----------------------|
G|----------------------|
D|-5-5h7-7b-5-7-5-------|
A|----------------7-5-0-|
E|----------------------|

Chorus
e|--------------------------------------------------------------------------------------|
B|-6--8--10-10--8-8--8-6----------6--8--10-10--8-8--8-6---------------------------------|
G|-5--7--9--9---7-7--7-5-7---(7)/-5--7--9---9--7-7--7-5-7-------------------------------|
D|-----------------------7---(7)/----------------------------7-7b-5-7-5-----------------|
A|----------------------------------------------------------------------7-5-0-----------|
E|--------------------------------------------------------------------------------------|
Tap to rate this tab
# A B C D E F G H I J K L M N O P Q R S T U V W X Y Z