Song name
# A B C D E F G H I J K L M N O P Q R S T U V W X Y Z

Motorhead - Back At The Funny Farm tab

. : palm mute
h : hammer-on
p : pull-off
~ : vibrato
Tune down half a step to Eb.

Intro 
e|--------------------------|-----------------------------|
B|--------------------------|-----------------------------|
G|--------------------------|-------------------------12~-|
D|-------12~---------12h14\-|-------12~---------12h14-----|
A|-12h14-------12h14--------|-12h14-------12h14-----------|
E|--------------------------|-----------------------------|
Play once

e|-------------------------|--------------------------------|
B|-------------------------|--------------------------------|
G|-------------------------|--------------------------------|
D|-------12~---------12-14-|-------12~---------12-14-14-12--|
A|-12h14-------12h14-------|-12h14-------12h14-------14-12--|
E|-------------------------|-------------------------12-10--|
Play 3(?) times

Verse   
e|---------------------------------|-------------------------------|-------|
B|---------------------------------|-------------------------------|-------|
G|---------------------------------|-------------------------------|-------|
D|---------------------------------|-------------------------------|-7---9-|
A|-0-0-5~--0-0-0-0-0-0-5~--0-7-0-0-|-0-0-5~--0-0-0-0-0-0-5~--0-7-0-|-5-7-7-|
E|---------------------------------|-------------------------------|---5---|
   . .     . . . . . .     .   . .   . .     . . . . . .     .   .
2nd time miss off ending and go straight to chorus.

chorus (3 times)    4th time
e|-----------------|---------------------|
B|-----------------|---------------------|
G|-----------------|---------------------|
D|-7---------------|-7-------------------|
A|-5-7-7-0-0-0-0-0-|-5-7-7-5-7-9-----5-2-|
E|---5-5-----------|---5-5-3-5-7-7-7-3-0-|
                                 . .       
Fill 1
e|------------3---| (2 guitars overdubbed)
B|----3---5-------|
G|----------------|
D|------------5---|
A|----5---7-------|
E|----------------|

Fill 2 (after solo)
e|-----------------------------------------------------------15~-| 
B|-15p14p12-15p14p12-15p14p12-15p14p12-15p14p12-15p14p12-15~-----|
G|---------------------------------------------------------------|
D|---------------------------------------------------------------|
A|---------------------------------------------------------------|
E|---------------------------------------------------------------|

Coda
e|-------------------------|
B|-------------------------|
G|-------------------------|
D|-5-7-9-5-7-9-5-7-9-5-2---|
A|-5-7-9-5-7-9-5-7-9-5-2---|
E|-3-5-7-3-5-7-3-5-7-3-0---|
                                       

Tap to rate this tab
 
# A B C D E F G H I J K L M N O P Q R S T U V W X Y Z