Song name
# A B C D E F G H I J K L M N O P Q R S T U V W X Y Z

Motorhead - Go To Hell tab

                         Motorhead - Go To Hell
                             Iron Fist (1982)
by CrazyDevil_666
         

(Intro And Main Riff)
       P.M.----|     P.M.----|     P.M.----|                        ___
|----------------------------------------------------------------|     |
|----------------------------------------------------------------|     |
|----------------------------------------------------------------|     |_ 6x
|----------------4~------------4~--------------6--6-6--8--8-6----|     |   
|--4h6-------------6-------------6-------------8--8-8--9--9-8----|     |
|------0-0-0-0-0-----0-0-0-0-0-----0-0-0-0-0---------------------|  ___|
       
    
(Chorus)                    __________________________   
                            |1.                       _
|----------------------------------------------------- |   
|----------------------------------------------------- |  
|----------------------------------------------------- |_ 2x   
|-9-9--9-9-9-9-9-9-9--8--7--6-6--6-6-6-6-6-6-6-6-6-6-- |   
|-9-9--9-9-9-9-9-9-9--8--7--6-6--6-6-6-6-6-6-6-6-6-6-- |    
|-7-7--7-7-7-7-7-7-7--6--5--4-4--4-4-4-4-4-4-4-4-4-4--_|    


   _______________
   |2.
  |---------------|
  |---------------|
  |---------------|
  |-6-6--6-6-6-4--|
  |-6-6--6-6-6-4--|
  |-4-4--4-4-4-2--|



(Main Riff)
       P.M.----|     P.M.----|     P.M.----|                        ___
|----------------------------------------------------------------|     |
|----------------------------------------------------------------|     |
|----------------------------------------------------------------|     |_ 4x
|----------------4~------------4~--------------6--6-6--8--8-6----|     |   
|--4h6-------------6-------------6-------------8--8-8--9--9-8----|     |
|------0-0-0-0-0-----0-0-0-0-0-----0-0-0-0-0---------------------|  ___|




CHORUS...




(Bridge)
|----------------------------|
|----------------------------|
|----------------------------|
|-----4---4h6h4---------3h4--|
|-4h6---6-------6h4-4h6------|
|----------------------------|



SOLO...




MAIN RIFF...




CHORUS...




MAIN RIFF...





(Chorus)                    __________________________   
                            |1.                       _
|----------------------------------------------------- |   
|----------------------------------------------------- |  
|----------------------------------------------------- |_ 3x   
|-9-9--9-9-9-9-9-9-9--8--7--6-6--6-6-6-6-6-6-6-6-6-6-- |   
|-9-9--9-9-9-9-9-9-9--8--7--6-6--6-6-6-6-6-6-6-6-6-6-- |    
|-7-7--7-7-7-7-7-7-7--6--5--4-4--4-4-4-4-4-4-4-4-4-4--_|    


   ______________________________
   |2.
  |------------------------------------|
  |------------------------------------|
  |------------------------------------|
  |-6-6--6-6-6-4-----------------------|
  |-6-6--6-6-6-4--444444444444444--9\--|
  |-4-4--4-4-4-2--222222222222222--7\--|




Well I hear it like that ... :) 
Tap to rate this tab
# A B C D E F G H I J K L M N O P Q R S T U V W X Y Z