Song name
# A B C D E F G H I J K L M N O P Q R S T U V W X Y Z

Motorhead - I Got Mine tab

------2----------------|
------3----------------|
---0--2--Let it ring---|2times
--2---0----------------|
-3---------------------|
-----------------------|
INRO

-----------2-------------------------------|
-----------3-------------------------------|
-----0-----2------0-----0------------------|
----2------0-----2-----0-----------4---4-5-|
---3------------3-----2----3-2-0---2---2-3-|
-------------------------------------------|

-----------2----2--0---2--0---3---2-|
-----------3----3--3---3--3---3---3-|
------0----2----2--2---2--2---2---2-| 2times
----2------0----0--0---0--0---0---0-|
--3---------------------------------|
------------------------------------|


-----------2-------------------------------|
-----------3-------------------------------|
-----0-----2------0-----0------------------|
----2------0-----2-----0-----------4---4-5-|
---3------------3-----2----3-2-0---2---2-3-|
-------------------------------------------|

Verse: "Here's a story, theres only me.....

-------------2222222-|
-------------3333333-|
--------0----2222222-|
------2------0000000-|  2 times
-----3---------------|
---------------------|


-----------2-------------------------------|
-----------3-------------------------------|
-----0-----2------0-----0------------------|
----2------0-----2-----0-----------4---4-5-|
---3------------3-----2----3-2-0---2---2-3-|
-------------------------------------------|

Chorus

------------------------------|
------------------------------|
--------5-----------5---7-----| 2times
---5-7-----7--------5---7-----|
------------------------------|
------------------------------|

---------------------------------------------|
---------------------------------------------|
----------5----------------------------------|
---5---7------7---7---5-----5----7---5-------|
-------------------------7--------------7--5-|
---------------------------------------------|

I dont have the solo but i try to find out!
Tap to rate this tab
 
# A B C D E F G H I J K L M N O P Q R S T U V W X Y Z