Song name
# A B C D E F G H I J K L M N O P Q R S T U V W X Y Z

Motorhead - Walk A Crooked Mile tab

Help us improve GuitareTab! Take a short survey!
Intro               h = hold

E--------------------------------------------------I
B--------------------------------------------------I
G--------------------------------------------------I
D--------------------------------------------------I
A--6h---6--6-6--6-6h---6--6-6--6-6h---6--6-6--6-6--I
D--6h---6--6-6--6-6h---6--6-6--6-6h---6--6-6--6-6--I


Riff 1

E-----------------------------------------------------------I
B-----------------------------------------------------------I
G-----------------------------------------------------------I
D-----------------------------------------------------------I  Repeat Through 
A--6h---6--6-6--6-4-4-4--4-4-1-1-1--1-1--1-0-0-0--0-1-0-1---I   The Singing
D--6h---6--6-6--6-4-4-4--4-4-1-1-1--1-1--1-0-0-0--0-1-0-1---I

Then at the end of that part it's...

E-----------------------------------------------------------I
B-----------------------------------------------------------I
G-----------------------------------------------------------I
D-----------------------------------------------------------I
A--6h--6--6-6--6-8-8-8--8-8-4-4-4--4-4--4-1-1-1--1-1-1-1----I
D--6h--6--6-6--6-8-8-8--8-8-4-4-4--4-4--4-1-1-1--1-1-1-1----I


This is the part before the Chorus when Lemmy Sing's 'SLOWLY'

E--------------------------------------------I
B--------------------------------------------I
G--------------------------------------------I
D--------------------------------------------I
A--8h----------4h----------1h----------8h----I
D--8h----------4h----------1h----------8h----I


Chorus

E----------------------------------------------------------------------I
B----------------------------------------------------------------------I
G---------------------------------------------------3-3-3-3-0-2-2-2----I
D---------------------------------------------------3-3-3-3-0-2-2-2----I
A--O-1-1-1--0-0-0--0-3-3-3--2-2-2--0-1-1-1--0-0-0----------------------I
D--0-1-1-1--0-0-0--0-3-3-3--2-2-2--0-1-1-1--0-0-0----------------------I

(Riff 1)

sorry dont know the solo
Related for Walk A Crooked Mile tab