Motorhead - I Dont Believe A Word tab

Intro Riff/Post Chorus
e|---------------------------------------------------------------------------------|
B|---------------------------------------------------------------------------------|
G|-9-----9-------------5-----5-------------7-----7---------------------------------|
D|-9-----9-------------5-----5-------------7-----7-------------7-----7-------------|
A|---7-7---7-7-7-7-7-7---3-3---3-3-3-3-3-3---5-5---5-5-5-5-5-5-7-----7-------------|
E|---------------------------------------------------------------5-5---5-5-5-5-5-5-|
     . .   . . . . . .   . .   . . . . . .   . .   . . . . . .   . .   . . . . . .

e|---------------------------------------------------------------------------------|
B|---------------------------------------------------------------------------------|
G|-9-----9-------------5-----5-------------7-----7-------------12\9----12\9--------|
D|-9-----9-------------5-----5-------------7-----7-------------12\9----12\9--------|
A|---7-7---7-7-7-7-7-7---3-3---3-3-3-3-3-3---5-5---5-5-5-5-5-5---------------------|
E|---------------------------------------------------------------------------------|
     . .   . . . . . .   . .   . . . . . .   . .   . . . . . . 

Verse 
e|---------------------------------------------------------------------------------|
B|---------------------------------------------------------------------------------|
G|---------------------------------------------------------------------------------|
D|-9-9-9-9-9-9-9-9-9-9-5-5-5-5-5-5-5-5-5-5-7-7-7-7-7-7-7-7-7-7---------------------|
A|-7-7-7-7-7-7-7-7-7-7-3-3-3-3-3-3-3-3-3-3-5-5-5-5-5-5-5-5-5-5-7-7-7-7-7-7-7-7-7-7-|
E|-------------------------------------------------------------5-5-5-5-5-5-5-5-5-5-|
   . . . . . . . . . . . . . . . . . . . . . . . . . . . . . . . . . . . . . . . .

This may be played as an open D string with _very_ heavy palm muting.
Before the Chorus, gradually release the muting and 'fade in' (see
below).

End of 2nd bae        End of 4th bar
(instead of the A's)	 (instead of the A's
e|-------------|     e|---------------------|
B|-------------|     B|---------------------|
G|-12\9--12\9--|     G|---------------7-7-7-|
D|-12\9--12\9--|     D|---------7-7-7-7-7-7-|
A|-------------|     A|-5-5-5-5-5-5-5-5-5-5-|
E|-------------|     E|---------------------|
                     gradually release muting 

Chorus
e|--------------------------------------------------------------------|
B|------------------------------------------------9-9-----------------|
G|-----------------------------------------8--8-8-8-8-8-8--8-8--8-8-8-|
D|-6--6-6--666--6-6---3--3--3--3--3--3--3--8--8-8-----8-8--8-8--8-8-8-|
A|-6--6-6--666--6-6---3--3--3--3--3--3--3--6--6-6-----6-6--6-6--6-6-6-|
E|-4--4-4--444--4-4---1--1--1--1--1--1--1-----------------------------|
 | guitar 2
G|-------------------7--9-10--9-7--9-10--9-|
D|-6--6-6--666--6-6--7--9-10--9-7--9-10--9-|etc. same as guitar 1
A|-6--6-6--666--6-6------------------------|
E|-4--4-4--444--4-4------------------------|

Chorus Ending             (1st)
e|----------------------------|---------------------------------|
B|----------------------------|---------------------------------|
G|--------6-6-----------------|-----------------7-7-7-7-7-7-7-7-|
D|-7--7-7-6-6-7-7--7-7--7-7-7-|-7-7-7-7-7-7-7-7-7-7-7-7-7-7-7-7-|
A|-7--7-7-----7-7--7-7--7-7-7-|-5-5-5-5-5-5-5-5-5-5-5-5-5-5-5-5-|
E|-5--5-5-----5-5--5-5--5-5-5-|---------------------------------|
                                . . . . . . . . . . . .

Coda
e|----------------------------------------------------|
B|----------------------------------------------------|
G|-----------------------------8----------------------|
D|-7-7-----77--------7-7-----778-----887-7-----77-----|
A|-5-5-----556-----665-5-----556-----665-5-----556----|
E|-----------4-----44----------------------------4----|
           ..      ..        ..      ..        ..

e|---------------------------------|
B|---------------------------------|
G|---------------------------------|
D|---------------------------------|
A|-5-5-5-5-5-5-5-5-5-5-5-5-5-5-5-5-|
E|-3-3-3-3-3-3-3-3-3-3-3-3-3-3-3-3-|
Tap to rate this tab
 
# A B C D E F G H I J K L M N O P Q R S T U V W X Y Z