Song name
# A B C D E F G H I J K L M N O P Q R S T U V W X Y Z

Motorhead - Ace Of Spades Acoustic tab

Ace of Spades Acoustic
Tabbed by Rich Bell

Intro:
----------|-----------------------|------------------|
----------|-----------------------|------------------|
----------|-----------------------|------------------|
----------|-----------------------|------------------|
--3-------|--------3-------3------|-------3----------| REPEAT
----5-3-5-|-5-3-5---5-3-5---5-3-5-|-5-3-5---5-3-5----|

If you like to gamble, I tell you I'm your man
----------------------------------|
----------------------------------|
--5-5-5-5-5-5-5-5-5-5-5-5-5-5-5-5-| 
--5-5-5-5-5-5-5-5-5-5-5-5-5-5-5-5-|
--3-3-3-3-3-3-3-0-3-3-3-3-3-3-3-0-|
----------------------------------|

You win some, lose some, it's - all - the same to me
----------------------------------|
----------------------------------|
--5-5-5-5-5-5-5-5-5-5-5-5-5-5-5-5-| 
--5-5-5-5-5-5-5-5-5-5-5-5-5-5-5-5-|
--3-3-3-3-3-3-3-0-3-3-3-3-3-3-3-0-|
----------------------------------|

INTRO RIFF

The pleasure is to play, it makes no difference what you say
--------------------------|
--------------------------|
--4-4-4-4--------3-3-3-3--|
--4-4-4-4--------3-3-3-3--|
--2-2-0-0--------1-1-0-0--|
--------------------------|

INTRO RIFF

I don't share your greed, the only card I need is
--------------------------|
--------------------------|
--4-4-4-4--------3-3-3-3--|
--4-4-4-4--------3-3-3-3--|
--2-2-0-0--------1-1-0-0--|
--------------------------|

INTRO RIFF

The Ace Of Spades
The Ace Of Spades

Playing for the high one, dancing with the devil,
----------------------------------|
----------------------------------|
--5-5-5-5-5-5-5-5-5-5-5-5-5-5-5-5-| 
--5-5-5-5-5-5-5-5-5-5-5-5-5-5-5-5-|
--3-3-3-3-3-3-3-0-3-3-3-3-3-3-3-0-|
----------------------------------|

Going with the flow, it's all a game to me,
----------------------------------|
----------------------------------|
--5-5-5-5-5-5-5-5-5-5-5-5-5-5-5-5-| 
--5-5-5-5-5-5-5-5-5-5-5-5-5-5-5-5-|
--3-3-3-3-3-3-3-0-3-3-3-3-3-3-3-0-|
----------------------------------|

INTRO RIFF

Seven or Eleven, snake eyes watching you,
--------------------------|
--------------------------|
--4-4-4-4--------3-3-3-3--|
--4-4-4-4--------3-3-3-3--|
--2-2-0-0--------1-1-0-0--|
--------------------------|

INTRO RIFF

Double up or quit, double stakes or split
--------------------------|
--------------------------|
--4-4-4-4--------3-3-3-3--|
--4-4-4-4--------3-3-3-3--|
--2-2-0-0--------1-1-0-0--|
--------------------------|

INTRO RIFF
The Ace Of Spades
The Ace Of Spades


You know I'm born to lose, and gambling's for fools,
----------------------------------|
----------------------------------|
--6-----------------6-4-----------| 
--7-----------------7-5-----------|
--7-----------------7-5-----------|
--5-----------------5-3-----------|


But that's the way I like it baby,
I don't wanna live forever,

			       
----------------------------|
----------------------------|
----------------------1-1---|
--555--5----55-5---5432-2---| 
--555--5----55-5---5432-2---|
--333--3----33-3---321------|

But apparently I am
---------------------|
---------------------|
1-1-1-1-1-1----------|
2-2-2-2-2-2----------| 
2-2-2-2-2-2----------|
---------------------|


----------------------------------|
----------------------------------|
--5-5-5-5-5-5-5-5-5-5-5-5-5-5-5-5-| 
--5-5-5-5-5-5-5-5-5-5-5-5-5-5-5-5-|
--3-3-3-3-3-3-3-0-3-3-3-3-3-3-3-0-|
----------------------------------|

INTRO RIFF

Pushing up the ante, I know you've got to see me,
----------------------------------|
----------------------------------|
--5-5-5-5-5-5-5-5-5-5-5-5-5-5-5-5-| 
--5-5-5-5-5-5-5-5-5-5-5-5-5-5-5-5-|
--3-3-3-3-3-3-3-0-3-3-3-3-3-3-3-0-|
----------------------------------|

Read 'em and weep, the dead man's hand again,
----------------------------------|
----------------------------------|
--5-5-5-5-5-5-5-5-5-5-5-5-5-5-5-5-| 
--5-5-5-5-5-5-5-5-5-5-5-5-5-5-5-5-|
--3-3-3-3-3-3-3-0-3-3-3-3-3-3-3-0-|
----------------------------------|

INTRO RIFF

I see it in your eyes, take one look and die,
--------------------------|
--------------------------|
--4-4-4-4--------3-3-3-3--|
--4-4-4-4--------3-3-3-3--|
--2-2-0-0--------1-1-0-0--|
--------------------------|


INTRO RIFF

The only thing you see, you know it's gonna be,
--------------------------|
--------------------------|
--4-4-4-4--------3-3-3-3--|
--4-4-4-4--------3-3-3-3--|
--2-2-0-0--------1-1-0-0--|
--------------------------|

INTRO RIFF
The Ace Of Spades
The Ace Of Spades

--------------------------|
--------------------------|
--4-4-4-4--------3-3-3-3--|
--4-4-4-4--------3-3-3-3--|
--2-2-0-0--------1-1-0-0--|
--------------------------|

--------------------------|
--------------------------|
--4-4-4-4--------3-3-3-3--|
--4-4-4-4--------3-3-3-3--|
--2-2-0-0--------1-1-0-0--|
--------------------------|


----------|--------|
----------|--------|
----------|--------|
----------|--------|
--3-------|--3-----|
----5-3-5-|---5-3-5|

Tap to rate this tab
 
# A B C D E F G H I J K L M N O P Q R S T U V W X Y Z