Song name
# A B C D E F G H I J K L M N O P Q R S T U V W X Y Z

Motorhead - We Are The Road Crew tab

Amazing Song by Motorhead, just learned it by ear  while playing Brutal Legend xD

So I don't know the tuning they use, so i'm gonna tab it on standard

Key: Abm

|-----------------------------------------------------|
|-----------------------------------------------------|
|-----------------------------------------------------|
|--6---4------------6---4------------6---4------------|
|----------6----------------6----------------6------4-|
|--------------7----------------7----------------7----|

---------------------|
-------------4-------|
-------------4-------|
-------4--6-----6----|
-4--6----------------|
---------------------|
Tap to rate this tab
 
# A B C D E F G H I J K L M N O P Q R S T U V W X Y Z