Song name
# A B C D E F G H I J K L M N O P Q R S T U V W X Y Z

Motorhead - Iron Horse Born To Lose tab

E|------------------------------------------------------------------------------|
B|------------------------------------------------------------------------------|
G|------------------------------------------------------------------------------|
D|-----5-7-5-7-5---5-7-----5-7-5-7-5---5-7-----5-7-5-7-5---5-7-8-8-7-5-8-8-7-5--|
A|-0-0-----------7-----0-0-----------7-----0-0-----------7-----6-6-5-3-6-6-5-3--|
E|------------------------------------------------------------------------------|

e|---------------------------------------------------------------------------|
B|---------------------------------------------------------------------------|
G|---------------------------------------------------------------------------|
D|-----5-7-5-7-5--5-7-----5-7-5-7-5--5-7-----5-7-5-7-5---5-7-8-8-7-5-8-8-7-5-|
A|-0-0-----------7----0-0-----------7----0-0-----------7-----6-6-5-3-6-6-5-3-|
E|---------------------------------------------------------------------------|

e|---------------------------------------------------------------------------|
B|---------------------------------------------------------------------------|
G|---------------------------------------------------------------------------|
D|-2-5-7-9-5-2-2-5-7-9-5-2-2-5-7-9-5-2-2-5-7-9-5-2-4-4-4-4-4-4-4-4-4-4-4-4-4-|
A|-0-3-5-7-3-0-0-3-5-7-3-0-0-3-5-7-3-0-0-3-5-7-3-0-2-2-2-2-2-2-2-2-2-2-2-2-2-|
E|---------------------------------------------------------------------------|

e|---------------------------------------------------------------------------|
B|---------------------------------------------------------------------------|
G|---------------------------------------------------------------------------|
D|-4-4-4-7-7-7-7-7-7-7-7-7-7-7-7-7-5-----5-7-5-7-5---5-7-----5-7-5-7-5---5-7-|
A|-2-2-2-5-5-5-5-5-5-5-5-5-5-5-5-5-3-0-0-----------7-----0-0-----------7-----|
E|---------------------------------------------------------------------------|

e|---------------------------------------------------------------------------|
B|---------------------------------------------------------------------------|
G|---------------------------------------------------------------------------|
D|-----5-7-5-7-5---5-7-8-8-7-5-8-8-7-5-----5-7-5-7-5---5-7-----5-7-5-7-5--5-7|
A|-0-0-----------7-----6-6-5-3-6-6-5-3-0-0-----------7-----0-0-----------7---|
E|---------------------------------------------------------------------------|

e|--------------------------------------|
B|--------------------------------------|
G|--------------------------------------|
D|-----5-7-5-7-5---5-7-8-8-7-5-8-8-7-5--|
A|-0-0-----------7-----6-6-5-3-6-6-5-3--|
E|--------------------------------------|
Tap to rate this tab
 
# A B C D E F G H I J K L M N O P Q R S T U V W X Y Z