Motorhead - Killed By Death tab

tabbed by: QOTSA2307

Intro Solo

E|-20p17--20p17--19p17-------------------------------------------|
B|------17-----17-----17-20-20v----------------------------------|
G|----------------------------------17-19b-19-17-19b-19-17-------|
D|-----------------------------sl/19----------------------17-19--|
A|---------------------------------------------------------------|
E|---------------------------------------------------------------|

E|-----------------------------------------------------------------|
B|--------------------------------------------------8--8--8--8-----|
G|-----5-7br-p5h7-5--5--5--5--5-7b-5v-7b-7b-7b-7b-7b-7b-7b-7b--5v--|
D|-sl/7------------7--55-55-55-------------------------------------|
A|-----------------------------------------------------------------|
E|-----------------------------------------------------------------|

Slowly release the bend on each bend on the G string (7b) when played with the 8's.

Only worked out intro solo. sorry. hope it helps this one tho.
Tap to rate this tab
 
# A B C D E F G H I J K L M N O P Q R S T U V W X Y Z