Motorhead - Dancing On Your Grave tab

-----------------3p2-----------|
-------3-----------------------|
---------2p0-------------------|
-------------0-0---------------|
-0-2-3-------------------------|
-------------------------------|

-----------------2p0-----------|
-------3-----------------------|
---------2p0-------------------|
-------------0-0---------------|
-0-2-3-------------------------|
-------------------------------|
Tap to rate this tab
 
# A B C D E F G H I J K L M N O P Q R S T U V W X Y Z