Song name
# A B C D E F G H I J K L M N O P Q R S T U V W X Y Z

Motorhead - Louie Louie tab

-----------------------------------------------------------------------------
			    Louie Louie- Motorhead
-----------------------------------------------------------------------------
Tabbed by: kujo987
Email: kurtis.tora@hotmail.com
comment for song suggestions!

Tuning: standard
e|-----------------------------------------------------------------|
B|-----------------------------------------------------------------|
G|-----------------------------------------------------------------|
D|---7--7----------7--7--9-9-9---7--7------------------------------|
A|---5--5--7-7-7---5--5--7-7-7---5--5------------------------------|
E|---------5-5-5---------------------------------------------------|

e|-----------------------------------------------------------------|
B|-----------------------------------------------------------------|
G|-----------------------------------------------------------------|
D|--2--5-7--7-9-9-9-------7\---------------------------------------|
A|--0--3-5--5-7-7-7-------5\---------------------------------------|
E|-----------------------------------------------------------------|

solo
e|-----------------------------------------------------------------|  x2
B|-----7b-------7b------7b------7b---------------------------------|
G|-----7b-------7b------7b------7b---------------------------------|
D|---------------------------------7--4-5--------------------------|
A|-----------------------------------------------------------------|
E|-----------------------------------------------------------------|

e|-----------------------------------------------------------------|
B|-----------------------------------------------------------------|
G|----------------------9------------------------------------------|
D|----10b--10b------10b---11-9-7-9-7---7---------------------------|
A|-----------------------------------9-----------------------------|
E|-----------------------------------------------------------------|

e|-----------------------------------------------------------------|
B|-------12b-12b---17-14-------------------------------------------|
G|--/12------------------16-13h14p13h14p13--15---------------------|
D|-----------------------------------------------------------------|
A|-----------------------------------------------------------------|
E|-----------------------------------------------------------------|

e|----------------------14\13\12\10\9------------------------------|
B|---12b--12p10p9-10----14\13\12\10\9------------------------------|
G|----------------------14\13\12\10\9------------------------------|
D|----------------------14\13\12\10\9------------------------------|
A|-----------------------------------------------------------------|
E|-----------------------------------------------------------------|
play after bass part
e|-----------------------------------------------------------------|
B|-----------------------------------------------------------------|
G|-----7\----------------------------------------------------------|
D|-----7\----------------------------------------------------------|
A|-----5\----------------------------------------------------------|
E|-----------------------------------------------------------------|

e|-----------------------------------------------------------------|
B|-----------------------------------------------------------------|
G|-----------------------------------------------------------------|
D|----7--7--7--7--7\-----------------------------------------------|
A|----7--7--7--7--7\-----------------------------------------------|
E|----5--5--5--5--5\-----------------------------------------------|
rate well!

************************************

| /   slide up
| \   slide down
| h   hammer-on
| p   pull-off
| ~   vibrato
| +   harmonic
| x   Mute note
| b   Bend
| pb  Pre-bend
| br  Bend release
| pbr Pre-bend release
| brb Bend release bend

************************************
Tap to rate this tab
 
# A B C D E F G H I J K L M N O P Q R S T U V W X Y Z