Song name
# A B C D E F G H I J K L M N O P Q R S T U V W X Y Z

Motorhead - Born To Lose tab

Artist: Motorhead
Album: The World is Yours
2011 (Johnny Thunders cover)

[intro+chorus]
Eb ------------------------      ------------------------|
Bb ------------------------      ------------------------|
Gb ------------------------      ------------------------|
Db -------7-7-7-7-7-5---5-7 [x3] ------------------------|     }x2
Ab -0---0-------------7----      -6-6-6--5--3--6-6-6-5-3-|
Eb ------------------------      ------------------------|

[verse]
--------------------------|
--------------------------|
--2-5-7----------9-5-2----|
--2-5-7----------9-5-2----|
--0-3-5----------7-3-0----|
--------------------------|

[bridge (verse-to-chorus)]
---------------------------------|
---------------------------------|
---------------------------------|
---------------------------------|
-9--9-9--9-9--11--12---12--12-12-|
-7--7-7--7-7--9---10---10--10-10-|

[solo backing]
---------------|
---------------|
---------------|
------9-8------|
-7----7-6----8-|
-5-----------6-|

[after the drum fill there are some mutes on the E and A string]

Order:
Intro x1
Verse x4
Bridge x1
Chorus x1
Verse x4
Bridge x1
Chorus x1
Solo backing x8
Verse x4
Bridge x1
Chorus x2
Tap to rate this tab
 
# A B C D E F G H I J K L M N O P Q R S T U V W X Y Z