Motorhead - Blackheart chords

Motorhead - Blackheart
from Rock n Roll
by Wobbles

Just the riffs in standard tuning. I think its supposed to be in Eb &
played the next fret up.


---------------------------------|
---------------------------------|
--------------------6------------|
-3--6----3--6-------4----3--6----|   X2
-1--4----1--4----4-------1--4----|
-----------------2---------------|



---------------------------------|
---------------------------------|
---------------------------------|
-----------4---------------------|   X8
-4h6-6-4h6---6-4h6---------------|
---------------------------------|


Repeat 1 & 2 a few times, then after the guitar solo


----------------------------------|
----------------------------------|
---------------------6--3---------|
-3-------------------4--1---------|  X3
-1--------------------------------|
----------------------------------|
  Palm mute a bunch



----------------------------------|
----------------------------------|
---------------------6--3---------|
-3-------------------4--1--6------|  X1
-1-------------------------4------|
----------------------------------|
   P.M. again


Repeat 1 & 2. Thats it! Sounds just like it to me.
Tap to rate this tab
 
# A B C D E F G H I J K L M N O P Q R S T U V W X Y Z