Song name
# A B C D E F G H I J K L M N O P Q R S T U V W X Y Z

Motorhead - Ace Of Spades Acoustic tab

This is the acoustic version of Ace Of Spades that Lemmy plays in the kronenbourg advert!
I think its pretty much all there, but Im not 100 percent about the solo!

Riff 1
e|-------------------|----------------------|
B|-------------------|----------------------|
G|----2----2--2----2-|----2----2----2----2--|
D|----2----2--2----2-|----2----2----2----2--|
A|-3b-0----0--0----0-|-3b-0----0-3b-0----0--|
E|------3b------3b---|------3b--------3b----|

Riff 2
e|----------------------------------|-----------------------------------|
B|----------------------------------|-----------------------------------|
G|-5-5-5-5-x-5-x-5--5-5-5-5-x-5-x-5-|-5-5-5-5-x-5-x-5--5-5-5-5-x-5-x-5--|
D|-5-5-5-5-x-5-x-5--5-5-5-5-x-5-x-5-|-5-5-5-5-x-5-x-5--5-5-5-5-x-5-x-5--|
A|-3-3-3-3-x-3-x-3--3-3-3-3-x-3-x-3-|-3-3-3-3-x-3-x-3--3-3-3-3-x-3-x-3--|
E|----------------------------------|-----------------------------------|

Riff 3
Gtr.1
e|-------------------|----------------------|
B|-------------------|----------------------|
G|----2----2--2----2-|----2----2----2----2--|
D|----2----2--2----2-|----2----2----2----2--|
A|-3b-0----0--0----0-|-3b-0----0-3b-0----0--|
E|------3b------3b---|------3b--------3b----|
Gtr.2
e|-------------------|--------------------|
B|----7b---5-----5---|----7b-7--5---------|
G|----7b-x-5-x-7-5-x-|----7b-7--5--x--7v--|
D|-------------------|--------------------|
A|-------------------|--------------------|
E|-------------------|--------------------|

Riff 4
e|-----------------------------------|
B|-----------------------------------|
G|-----------------------------------|
D|-5-5-5-5-x-5-x-5--3-3-3-3-x-3-x-3--|
A|-5-5-5-5-x-5-x-5--3-3-3-3-x-3-x-3--|
E|-3-3-3-3-x-3-x-3--1-1-1-1-x-1-x-1--|

Riff 5
Gtr.1
e|-------------------|----------------------|
B|-------------------|----------------------|
G|----2----2--2----2-|----2----2----2----2--|
D|----2----2--2----2-|----2----2----2----2--|
A|-3b-0----0--0----0-|-3b-0----0-3b-0----0--|
E|------3b------3b---|------3b--------3b----|
Gtr.2
e|-------------------|----------------------|
B|-------------------|----------------------|
G|------------9-8-7--|------------9-8-7-----|
D|-------------------|----------------------|
A|-------------------|----------------------|
E|-------------------|----------------------|

Riff 6
e|------------------------|-------------------------|
B|------------------------|-------------------------|
G|--2---------------------|----2--------------------|
D|--2---pause-------------|----2----pause-----------|
A|--0---------------------|-3b-0--------------------|
E|------------------------|-------------------------|

Riff 7
Gtr.1
e|-------------------------------------|--------------------------------------|
B|-------------------------------------|--------------------------------------|
G|-------------------------------------|--------------------------------------|
D|--5-5-5-5--5-5-5-5--5-5-5-5--7--5--3-|-2--22-2--2-2-2-2--2-2-2-2--2-2-2-2---|
A|--5-5-5-5--5-5-5-5--5-5-5-5--7--5--3-|-2--22-2--2-2-2-2--2-2-2-2--2-2-2-2---|
E|--3-3-3-3--3-3-3-3--3-3-3-3--5--3--1-|-0--00-0--0-0-0-0--0-0-0-0--0-0-0-0---|
Gtr.2
e|-------------------------------------|--------------------------------------|
B|-------------------------------------|--------------------------------------|
G|-------------------------------------|--------------------------------------|
D|-------------------------------------|-----------------------------------5/-|
A|-------------------------------------|--------------------------------------|
E|-------------------------------------|--------------------------------------|

Riff 8
Gtr.1
e|-------------------------------------|-------------------------------------||
B|-------------------------------------|-------------------------------------||
G|--7-7-7-7--7-7-7-7--7-7-7-7--7-7-7-7-|-7-7-7-7--7-7-7-7--7-7-7-7--7-7-7-7--||
D|--7-7-7-7--7-7-7-7--7-7-7-7--7-7-7-7-|-7-7-7-7--7-7-7-7--7-7-7-7--7-7-7-7--||
A|--5-5-5-5--5-5-5-5--5-5-5-5--5-5-5-5-|-5-5-5-5--5-5-5-5--5-5-5-5--5-5-5-5--||
E|-------------------------------------|-------------------------------------||
Gtr.2
e|-------------------|---------------------------|
B|-------------------|---------------------------|
G|-----------1010----|----------------------1010-|
D|-12-12\1010----/12-|-12\10-10/12~-12/10-10-----|
A|-------------------|---------------------------|
E|-------------------|---------------------------|

Gtr.2 (cont.)
e|---------------------------------------------------|--------------||
B|-------------------------------------------12------|--------------||
G|------------------12------12----12---12---12----12-|--------------||    
D|-12\10/12-12-10/12---10/12---10/--10/--10/---10/---|--12\10-------||          
A|---------------------------------------------------|--------12\3--||         
E|---------------------------------------------------|--------------||

Note: this solo is supposed to be played using a slide, but as I dont own one
      (or am able to use one!) this is what I play instead.
      I dont think its 100% right, but, cmon, its close enough!

Riff 9
e|---------------------------------||
B|---------------------------------||
G|--2-2----2---x-x-------2-2----2--||
D|--2-2----2---x-x-------2-2----2--||
A|--0-0----0---x-x-------0-0----0--||
E|------3b----------12\------3b----||

Song order 

Riff 1 x 2
Riff 2 x 1
Riff 3 x 2

Riff 4 x 1
Riff 3 x 1
Riff 4 x 1
Riff 5 x 2

Riff 2 x 1
Riff 3 x 2

Riff 4 x 1
Riff 1 x 1
Riff 4 x 1
Riff 5 x 2

Riff 6 x 1
Riff 7 x 1
Riff 8 x 1
Riff 5 x 2

Riff 2 x 1
Riff 3 x 2

Riff 4 x 1
Riff 1 x 1
Riff 4 x 1
Riff 5 x 2

Riff 4 x 2
Riff 9 x 1

End

Key:
x - dead note/string
v - heavy vibrato
~ - gentle vibrato

Tap to rate this tab
 
# A B C D E F G H I J K L M N O P Q R S T U V W X Y Z