Song name
# A B C D E F G H I J K L M N O P Q R S T U V W X Y Z

Motorhead - We Bring The Shake tab

e|---------------------------------|---------------------------------|
B|---------------------------------|---------------------------------|
G|-7-----7-----7-----7-----7---7---|-6-----6-----6-----6-----6---6---|
D|-5-----5-----5-----5-----5---5---|-4-----4-----4-----4-----4---4---|
A|---0-0---0-0---0-0---0-0---0---0-|---0-0---0-0---0-0---0-0---0---0-|
E|---------------------------------|---------------------------------|
       
e|---------------------------------|----------0----------------------|
B|---------------------------------|-------0-------------------------|
G|-7-----7-----7-----7-----7---7---|----5----------------------------|
D|-5-----5-----5-----5-----5---5---|-3-------------------------------|
A|---0-0---0-0---0-0---0-0---0---0-|---------------------------------|
E|---------------------------------|---------------------------------|
     . .   . .   . .   . .   .   .
Chorus
e|----------------------------|-------------------------------|
B|----------------------------|-------------------------------|
G|---5-----5-------5-----5----|-5-5---------5-5-5-----5-5-5---|
D|---5-----5---7~--5-----5----|-5-5-----7p5-5-5-5-----5-5-5---|
A|-0---0-0---0-------0-0---0--|-3---3-3-----3-3---3-3-3-3-3---|
E|----------------------------|-------------------------------|
   .   . .   .       . .   .        . .           . .
                                    1st ending of every chorus
e|---------------------------------|--------------------------------|
B|---------------------------------|--------------------------------|
G|---------------------------------|-----------------5~-------------|
D|-----3-----3---------------------|------------6~---------6~-------|
A|-3-3-3-3-3-3-3-3-3-3-3-3-3-3-3-3-|-------6~--------------------6~-|
E|-1-1---1-1---1-1-1-1-1-1-1-1-1-1-|-4~-----------------------------|
   . .   . .   . . . . . . . . . . 
  2nd ending of 1st chorus           2nd ending of 2nd chorus
e|--------------------------------|	|---------------------------------|
B|---------------------4~--/---9~-|	|---------------------------------|
G|-----------------5~-------------|	|---------------------------------|
D|------------6~------------------|	|---------------------------------|
A|-------6~-----------------------|	|-3-3-3-3-3-3-3-3-3-3-3-3-3-3-3-3-|
E|-4~-----------------------------|	|-1-1-1-1-1-1-1-1-1-1-1-1-1-1-1-1-|
                                        
Solo backing (x2)
e|-------------------------|-------------------------|
B|-------------------------|-------------------------|
G|-------4-----7-----4-----|-------4-----------------|
D|-4-----4-----7-----4-----|-4-----4-----7-----------|
A|-4-----2-----5-----2-----|-4-----2-----7-----------|
E|-2-----------------------|-2-----------5-----------|

Coda
e|-----------------------------------------------------------|---|
B|-----------------------------------------------------------|---|
G|-------7---------7---------8--------7---------7--------8p5-|---|
D|--6---------6---------6--------6---------6---------6-------|-3-|
A|-----------------------------------------------------------|-3-|
E|-----------------------------------------------------------|-1-|
 

Tap to rate this tab
# A B C D E F G H I J K L M N O P Q R S T U V W X Y Z